Guitar Tabs
song title    band name

Join Us Today!

Don't strum alone...
be a part of the largest online Christian music community. Browse thousands of guitar tabs and chat w/ musicians like yourself.


It's Free!

This tab has not yet been rated for accuracy.Sorry, but you must be logged in to rate this tab.
Click here to log-in, or you can click here to register.
(Registration is free)

All songs owned by corresponding publishing company. If you make copies of any song on this website, be sure to report your usage to CCLI.
Artist: East West
Song: Nephesh
Album: The Light in Guinnevere's Garden
Transcribed By: Steven Rehbein
Tuning: Drop B

I would have put the notes that the tuning is on the beginning of the
lines, but it has sharps in it and i guess the server can't have sharps
lol cuz it told me it was a SQL error or something. So the tuning is drop
B. Here's how you do it:
1. High E down to C sharp
2. B down to G sharp
3. G down to E
4. D down to B
5. A down to F sharp
6. Low E down to B

So that's how you drop B! I recommend having a chromatic tuner, and if
your going to play alot of this drop B stuff, you should get thicker
strings. I am using 11 gauge right now and they work alot better than
my 9s or 10s did. So now, on to the song!


Intro:
--------------------------------------------
--------------------------------------------
--------------------------------------------
---12-12-12----10-10-10---13--10--12-12-12--
---12-12-12----10-10-10---13--10--12-12-12--
---12-12-12----10-10-10---13--10--12-12-12--

---------------------------------------------------------
---------------------------------------------------------
---------------------------------------------------------
--12-12-12---12-12-12---13--10-10-10---13--10--12-12-12--
--12-12-12---12-12-12---13--10-10-10---13--10--12-12-12--
--12-12-12---12-12-12---13--10-10-10---13--10--12-12-12--

----------------|
----------------|
----------------|
--13-12-12-12---|
--13-12-12-12---|
--13-12-12-12---|

Verse: (Let Each Note Ring)
--------------------------------------
--------------------------------------
--------------------------------------
---12---13--10---13--10--12---13--12--
---12---13--10---13--10--12---13--12--
---12---13--10---13--10--12---13--12--

------------------------------------------|
------------------------------------------|
------------------------------------------|
-13--12--13--10---13--10--12-13-12---12---|
-13--12--13--10---13--10--12-13-12---12---|
-13--12--13--10---13--10--12-13-12---12---|

Chorus:
-----------------------------------------|
-----------------------------------------|
-----------------------------------------|
---0-1-0-2-0-1-0-2-0-1-0-2-0-3-0-4-------|
---0-1-0-2-0-1-0-2-0-1-0-2-0-3-0-4-------|
---0-1-0-2-0-1-0-2-0-1-0-2-0-3-0-4-------|

Interlude
--------------------------------------------
--------------------------------------------
--------------------------------------------
---12-12-12----10-10-10---13--10--12-12-12--
---12-12-12----10-10-10---13--10--12-12-12--
---12-12-12----10-10-10---13--10--12-12-12--

------------------------------------------------------------
------------------------------------------------------------
------------------------------------------------------------
--12-12-12---13-12-12-12---13--10-10-10---13--10--12-12-12--
--12-12-12---13-12-12-12---13--10-10-10---13--10--12-12-12--
--12-12-12---13-12-12-12---13--10-10-10---13--10--12-12-12--

----------------|
----------------|
----------------|
--13-12-12-12---|
--13-12-12-12---|
--13-12-12-12---|

Verse 2:
-----------------------------------------
-----------------------------------------
-----------------------------------------
--13-12---13--10---13--10--12---13--12---
--13-12---13--10---13--10--12---13--12---
--13-12---13--10---13--10--12---13--12---


------------------------------------------|
------------------------------------------|
------------------------------------------|
10--12--13--12---13--10---13--10-12-13-12-|
10--12--13--12---13--10---13--10-12-13-12-|
10--12--13--12---13--10---13--10-12-13-12-|

Chorus

Bridge (All Palm Muted)
----------------|
----------------|
----------------|
---0-0-0-0-0--0-|
---0-0-0-0-0--0-|
---0-0-0-0-0--0-| Play 9 Times

Solo:
------------------------------|
------------------------------|
------------------------------|
----8--7---8--5---8--7---7--7-|
------------------------------|
------------------------------|

Then back to the chorus

End on the last note of chorus


The little weird thing at the end:
-----15--16-15----12----------|
---------------15-------------|
------------------------------|
------------------------------|
------------------------------|
------------------------------|


That's it! It took me a while, so enjoy it! heh heh. If you have any
questions or comments, email me about it at skaskater1984@yahoo.com

Comments about this tab

No comments/corrections found. Add your own

Complimentary Christian Ringtones
Dadamobile and CGR have teamed up to bring your favorite Christian artists right to your phone. Sign up today and get 10 complementary ringtones!
Tab Country
Did you know CGR has a sister site w/ country guitar tabs? Well we do! Its called Tab Country. It has a great archive with a lot of country tabs.
Rockin Tabs
Are you looking for a site that has rock guitar tabs? Then Rockintabs.com is the place for you. It is a budding site with many rock guitar tabs. Submit your tab today.
Tab Gallery
Tab Gallery has a compilation of christian, rock, and country tabs all in one place. Come visit us.