Guitar Tabs
song title    band name

Join Us Today!

Don't strum alone...
be a part of the largest online Christian music community. Browse thousands of guitar tabs and chat w/ musicians like yourself.


It's Free!

This tab has not yet been rated for accuracy.Sorry, but you must be logged in to rate this tab.
Click here to log-in, or you can click here to register.
(Registration is free)

All songs owned by corresponding publishing company. If you make copies of any song on this website, be sure to report your usage to CCLI.
Artitst: Phil Keaggy
Song: The Moors of Bellevue
Album: Keaggy/King/Dente`- Invention
Submitted by: Travis

Notes: This song is played in the key of C, and the riffs come out of the
A natural minor scale, if this is any help to you. I could only figure out
one guitar part, but if you find an improvement or mistake let me know at
tocdbc@juno.com. () = note played in background by bass or other guitar. If
u want to solo, just improv in some modes in the key of C.

Verse:
F. . . . G7
F. . . . G7 . . .(drums, bass, and other guitars come in)
(repeat twice)

Main riff (1st time)
e----------------------------
B----------------------------
G--7--7--7-5-7-9-7-5---------
D---------------------7---(5)
A----------------------------
E----------------------------
repeat twice, then play the modified riff once:

e-------------------------
B-------------------------
G--7--7--7-5-7-9-7-5-9~~~~
D-------------------------
A-------------------------
E-------------------------

Now play chorus riff:
e-------------------------
B-------------------------
G--12----9--7------5------
D----------------7----7-5-
A-------------------------
E-------------------------

Then play verse, then play the main riff the second time:
(2nd time)
e----------------------------
B----------------------------
G--7--7--7-5-7-9-7-5---------
D---------------------7---(5)
A----------------------------
E----------------------------

then:

e----------------------------------
B----------------------------------
G--7--7--7-5-7-9-7-5---------------
D---------------------7---7-7-9-7-5
A----------------------------------
E----------------------------------

then:

e------------------------------------
B------------------------------------
G--7--7--7-5-7-9-7-5-----------------
D---------------------7---7-5--------
A-----------------------------7-5----
E---------------------------------7-5

then play the modified riff that is above.

Again, if you have a comment or note or fixation or, you know, whatever,
e-mail me. 

Cool beans.

Comments about this tab

No comments/corrections found. Add your own

Complimentary Christian Ringtones
Dadamobile and CGR have teamed up to bring your favorite Christian artists right to your phone. Sign up today and get 10 complementary ringtones!
Tab Country
Did you know CGR has a sister site w/ country guitar tabs? Well we do! Its called Tab Country. It has a great archive with a lot of country tabs.
Rockin Tabs
Are you looking for a site that has rock guitar tabs? Then Rockintabs.com is the place for you. It is a budding site with many rock guitar tabs. Submit your tab today.
Tab Gallery
Tab Gallery has a compilation of christian, rock, and country tabs all in one place. Come visit us.