Guitar Tabs
song title    band name

Join Us Today!

Don't strum alone...
be a part of the largest online Christian music community. Browse thousands of guitar tabs and chat w/ musicians like yourself.


It's Free!

Ten Shekel Shirt - Sweet Embrace

This tab has been rated a 5.00 out of 5 for accuracy. (1 vote)Sorry, but you must be logged in to rate this tab.
Click here to log-in, or you can click here to register.
(Registration is free)

All songs owned by corresponding publishing company. If you make copies of any song on this website, be sure to report your usage to CCLI.
Song: Sweet Embrace
Band: Ten Shekel Shirt
Cd: Much
Copyright: 2000 Integrityís Hosanna! Music/ASCAP
Tabbed by: Ryanne (edvdm@attbi.com)
 
Alright, for this song you capo on the 4th fret. I wasnít real sure about
how to tab that, so when I say 1, it means the 5th fret. (You know, like
the first fret after the capo.) Iím only explaining all this, cause I have
no clue how the real way is. Anywayz, here it is.
 
Intro/Chorus: () x2                 then:
E|-(-3-----3-----3-3-3-3-3-)----------3--------------------------------
B|-(-3-----3-----3-3-3-3-3-)----------3--------------------------------
G|-(-0-----0-----0-0-0-0-0-)----------0--------------------------------
D|-(-0---2-x-----x-x-x-0-0-)ó---------0--------------------------------
A|-(-x-----3---3-2-3-2-x-x-)----------x-------------------------------- 
E|---------------------------------------------------------------------
 
 
Part A: (I couldnít figure out what else to call it.)
E|-(-3-----------------3-3-)----------3-------------------------------- 
B|---------------------------------------------------------------------
G|--0----------------0-----------0-------------------------------------
D|----3-3//5--2-3-2----3-3//5--3---------------------------------------
A|---------------------------------3-----------------------------------
E|---------------------------------------------------------------------


Verse:
E|---------------------------------------------------------------------
B|---------------------------------------------------------------------
G|-0-------------------0------0-----------------0----------54-54-54----
D|---3-3//5----3-3//5----3------3-3//5---2-3-2----3-3//5-----5--5------
A|-------------------------3-----------3-------------------------------
E|-----------3---------------------------------------------------------
 
Prechorus: x4
E|---------------------------------------------------------------------
B|------7-7------------------------------------------------------------
G|----------------9----------------------------------------------------
D|----9---------9----9-------------------------------------------------
A|--9---------7--------------------------------------------------------
E|---------------------------------------------------------------------
 
Chorus x2
Part A
Verse w/no guitar, at end play the last little verse riff
Prechorus
Chorus
 
Bridge:
E|---------------------------------------------------------------------
B|-5--------------------5-5//6~~~~--8~~~~---5~~~~----------------------
G|-5---------5ó5//7~~~~------------------------------------------------
D|-5-------------------------------------------------------------------
A|---------------------------------------------------------------------
E|---------------------------------------------------------------------
 
At 2:46, one guitar plays a solo (which I didnít figure out) and the other
just plays the chorus chords till the end.

Comments about this tab

No comments/corrections found. Add your own

Complimentary Christian Ringtones
Dadamobile and CGR have teamed up to bring your favorite Christian artists right to your phone. Sign up today and get 10 complementary ringtones!
Tab Country
Did you know CGR has a sister site w/ country guitar tabs? Well we do! Its called Tab Country. It has a great archive with a lot of country tabs.
Rockin Tabs
Are you looking for a site that has rock guitar tabs? Then Rockintabs.com is the place for you. It is a budding site with many rock guitar tabs. Submit your tab today.
Tab Gallery
Tab Gallery has a compilation of christian, rock, and country tabs all in one place. Come visit us.