Guitar Tabs
song title    band name

Join Us Today!

Don't strum alone...
be a part of the largest online Christian music community. Browse thousands of guitar tabs and chat w/ musicians like yourself.


It's Free!

Ten Shekel Shirt - Great

This tab has been rated a 5.00 out of 5 for accuracy. (3 votes)Sorry, but you must be logged in to rate this tab.
Click here to log-in, or you can click here to register.
(Registration is free)

All songs owned by corresponding publishing company. If you make copies of any song on this website, be sure to report your usage to CCLI.
Song: Great
Band: Ten Shekel Shirt
Cd: Much
Copyright: 2000 Integrityís Hosanna! Music/ASCAP
Tabbed by: Ryanne (edvdm@attbi.com)

Intro:
E|----------------------------------------
B|----------------------------------------
G|------0---------0-------0---------------
D|----4----4----4---4---2---2----2-0-4-5--
A|-4/5-5-5--5--5-5-5---3-3-3-3--3---5-5---
E|----------------------------------------

Verse: (Iím not sure how many times you play it)
E|---------------------
B|---------------------
G|----0----0------0----
D|---0----0------------
A|--2----3----5--3-3---
E|-3----5----7--5------

Second part of verse: x2
E|--------------------------
B|--------------------------
G|----0-----0-----0-----0---
D|---0-0---0-0---0-0---0-0--
A|--2-----4-----5-----5-----
E|-3-----5-----7-----8------

Pre-chorus: x2
G C E* C

Chorus: x2
G C E* C Em* D G

Verse
Second part of verse
Prechorus x2
Chorus x2

after the D play:
Em* D G C D (pull off the two) D C D C

Chorus
Verse
Pre-chorus

Chords:
G-300033
C-x30033
E*-x20033
Em*-022033
D-xx0232

Comments about this tab

No comments/corrections found. Add your own

Complimentary Christian Ringtones
Dadamobile and CGR have teamed up to bring your favorite Christian artists right to your phone. Sign up today and get 10 complementary ringtones!
Tab Country
Did you know CGR has a sister site w/ country guitar tabs? Well we do! Its called Tab Country. It has a great archive with a lot of country tabs.
Rockin Tabs
Are you looking for a site that has rock guitar tabs? Then Rockintabs.com is the place for you. It is a budding site with many rock guitar tabs. Submit your tab today.
Tab Gallery
Tab Gallery has a compilation of christian, rock, and country tabs all in one place. Come visit us.