Guitar Tabs
song title    band name

Join Us Today!

Don't strum alone...
be a part of the largest online Christian music community. Browse thousands of guitar tabs and chat w/ musicians like yourself.


It's Free!

Ten Shekel Shirt - Ocean

This tab has been rated a 3.75 out of 5 for accuracy. (4 votes)Sorry, but you must be logged in to rate this tab.
Click here to log-in, or you can click here to register.
(Registration is free)

All songs owned by corresponding publishing company. If you make copies of any song on this website, be sure to report your usage to CCLI.
Song: Ocean
Band: Ten Shekel Shirt
Cd: Ten Shekel Shirt
Copyright: 2000 Integrityís Hosanna! Music/ASCAP
Tabbed by: Ryanne (evdm@voyager.net)
 
This tab isnít perfect. I know theres like two guitars, and I figured out
both of them for some of the parts. Anywayz, youíll figure it out.
 
Intro: first guitar- repeat
E|---------------------------------------------------------------------
B|-5h7-----------------------------------------------------------------
G|----4-4-4/6-6/7-7/9--------------------------------------------------
D|---------------------------------------------------------------------
A|---------------------------------------------------------------------
E|---------------------------------------------------------------------
 
Second guitar plays D* Em7
 
Verse: D* Em7 (alternate between chords and get a sliding down sound)
 
Lead into chorus: use overdrive
E|------5-------5------5------5----------------------------------------
B|----5-------3------5------3------------------------------------------
G|--6-------4------6------4--------------------------------------------
D|---------------------------------------------------------------------
A|---------------------------------------------------------------------
E|---------------------------------------------------------------------
 
Chorus: (D/F# is optional, it makes it sound fuller, but you donít need it,
if you do use it, itís just a real quick lead in to the G)
 
D Em7 D/F# G A
 
First guitar: plays throughout chorus
E|-----5-----5-----5-----5---------------------------------------------
B|---5-----7-----3-----5-----------------------------------------------
G|-7-----9-----4-----6-------------------------------------------------
D|---------------------------------------------------------------------
A|---------------------------------------------------------------------
E|---------------------------------------------------------------------
 
Verse
Chorus
 
Solo thing:
E|---------------------------------------------------------------------
B|-5/7-7-----------------5/7-----------------5---7---------------------
G|-------4-4-4h6-6/7-7/9-----4---6---4---6-----------------------------
D|---------------------------------------------------------------------
A|---------------------------------------------------------------------
E|---------------------------------------------------------------------
 
 
Chorus
 
Ending:
E|---------5-----------------------------------------------------------
B|-7-7-7/8---5---------------------------------------------------------
G|---------------------------------------------------------------------
D|---------------------------------------------------------------------
A|---------------------------------------------------------------------
E|---------------------------------------------------------------------
 
end on D
 
 
Chords:
D*-x9777x
Em7-x2003x
D-xx0232
D/F#-2x0232
G-320003
A-x02220

Comments about this tab

Flippin4Jesus - 2006-07-21

sweet, that sounds awesome.


Add a comment/correction

Complimentary Christian Ringtones
Dadamobile and CGR have teamed up to bring your favorite Christian artists right to your phone. Sign up today and get 10 complementary ringtones!
Tab Country
Did you know CGR has a sister site w/ country guitar tabs? Well we do! Its called Tab Country. It has a great archive with a lot of country tabs.
Rockin Tabs
Are you looking for a site that has rock guitar tabs? Then Rockintabs.com is the place for you. It is a budding site with many rock guitar tabs. Submit your tab today.
Tab Gallery
Tab Gallery has a compilation of christian, rock, and country tabs all in one place. Come visit us.