Guitar Tabs
song title    band name

Join Us Today!

Don't strum alone...
be a part of the largest online Christian music community. Browse thousands of guitar tabs and chat w/ musicians like yourself.


It's Free!

This tab has been rated a 5.00 out of 5 for accuracy. (1 vote)Sorry, but you must be logged in to rate this tab.
Click here to log-in, or you can click here to register.
(Registration is free)

All songs owned by corresponding publishing company. If you make copies of any song on this website, be sure to report your usage to CCLI.
Janet
Rod Laver

   Intro:  

      e[------------------------------]  [-----------------------]
      B[------------------------------]  [-----------------------]
      G[------------------------------]  [-----------------------]
      D[------------------------------]x4[-----------------------] 
      A[-----7--------8p7-----8p7-----]  [------7---------7p5-8p7]
      E[-0-0-----0-0-------0----------]  [-0-0----0-0-3h5--------]


   Verse 1:
     
      e[-------------------------------------------------------]
      B[-------------------------------------------------------]
      G[-------------------------------------------------------]
      D[-------------------------------------------------------]
      A[-----8p7----------7p5-8p7------8p7-------5-4-----------]
      E[-0-0-----0-0--3h5---------0-0-------0-0----------------]


      e[-------------------------------------------------------]
      B[-------------------------------------------------------]
      G[-------------------------------------------------------]
      D[-------------------------------------------------------]  x2
      A[-----8p7----------7p5-8p7------8p7--------5/10---------] 
      E[-0-0-----0-0--3h5---------0-0-------0-0----------------]


   Pre-Chorus:

      e[-------5------5--------3------3--1h3----]
      B[----------------------------------------]
      G[----------------------------------------]
      D[---777----777-----555-----555-----------]x2
      A[---777----777-----555-----555-----------]
      E[---555----555-----333-----333-----------]


     Chorus:
      
      e[---------------------------------------------------]
      B[---------------------------------------------------]
      G[---------------------------------------------------]
      D[---------------------------------------------------]
      A[------8p7-----8p7---8p7--------8p7-----5-4---------]
      E[--0-0-----0-0-----0--------0-0-----0-0-------------]
  
      e[---------------------------------------------------]
      B[---------------------------------------------------]
      G[---------------------------------------------------]
      D[---------------------------------------------------]
      A[------8p7-----8p7---8p7--------8p7-------5-4-------]
      E[--0-0-----0-0-----0--------0-0------0-0------------]


   Verse Two: same as verse one

   chorus x2
 
   Bridge:   listen to CD for exact timing
         Part one          Part two
    e[-------------]  [------------------------------------------------------]
    B[-------------]  [------------------------------------------------------]
    G[-------------]  [------------------------------------------------------]
    D[-------------]x4[-222--22--x4-222-22-202-x4-222-22-202-555-55--777-77-2]
    A[-10--9--9/12-]  [-222--22-----222-22-202----222-22-202-555-55--777-77-2] 
    E[--8--7--7/10-]  [-000--00-----000-00-000----000-00-000-333-33--555-55-0]

     chorus
       
 
      Ending
 
     e[-----------------]
     B[-----------------]
     G[-----------------]
     D[-222-22--202-----]x4
     A[-222-22--202-----]
     E[-000-00--000-----] 


   Artist:  rod. laver
       Cd:  In A Perfect World...
    Label:  BEC Recordings
            Copyright 2001

Comments about this tab

Da Flufsta - 2005-10-11

rod laver is awsome


Add a comment/correction

Complimentary Christian Ringtones
Dadamobile and CGR have teamed up to bring your favorite Christian artists right to your phone. Sign up today and get 10 complementary ringtones!
Tab Country
Did you know CGR has a sister site w/ country guitar tabs? Well we do! Its called Tab Country. It has a great archive with a lot of country tabs.
Rockin Tabs
Are you looking for a site that has rock guitar tabs? Then Rockintabs.com is the place for you. It is a budding site with many rock guitar tabs. Submit your tab today.
Tab Gallery
Tab Gallery has a compilation of christian, rock, and country tabs all in one place. Come visit us.