Guitar Tabs
song title    band name

Join Us Today!

Don't strum alone...
be a part of the largest online Christian music community. Browse thousands of guitar tabs and chat w/ musicians like yourself.


It's Free!

Audio Adrenaline - Get Down

This tab has been rated a 4.67 out of 5 for accuracy. (15 votes)Sorry, but you must be logged in to rate this tab.
Click here to log-in, or you can click here to register.
(Registration is free)

All songs owned by corresponding publishing company. If you make copies of any song on this website, be sure to report your usage to CCLI.
Get Down
Audio Adrenaline
Tabbed by Nate (narowgatenate@honorguard.net)

Ok, I wass checking out the AudioA section of this site, and I noticed
that none of the versions of Get Down had the correct Intro Tab so here
it is:

E---2-----------2--0---2-----0--2--------------------------------------------
B-----3---3---3----------3---------------------------------------------------
G-2-----2---1--------0-----2-------------------------------------------------
D----------------------------------------------------------------------------
A----------------------------------------------------------------------------
E----------------------------------------------------------------------------

This is absolutely correct. No mistakes. E-mail me if any of you have
questions about any music for Christian songs.
Your Bro Thru our Heavenly Father,
Nate

Comments about this tab

Living Sacrifice - 2004-08-23

At the end, you can sub the --0--2-- with --0--0h2--.


Kyubi-Unleashed - 2004-12-21

yea this is pretty accurate and this is what i use except you should hammer the 0--2 bcoz thats wut i was told by the ONE the ONLY JAMES KANG!


calazoid - 2005-01-24

this is exactly right


Titus009 - 2005-02-02

i think that this song should go like this-
B--2------2-0---3----0-2
E---3------------2------
G-2---2-1------0--2-----

i think this is right but good job nice tab


BlackAttack1287 - 2005-03-04

That's pretty close, I'm a newbie at guitar, so this might be wrong, but anyhow here's how I play it:

----2-----------2-0---2-----2-
------3---3---0---------3-----
--2-----2---1-------1-----2---

Let me know what you guys all think :D

-BlackAttack1287


wwjd? - 2005-06-13

I think the intro should be like this:

E---2-----------2--0---2------0--2---------
B-----3---3---3----------3----3-----------
G-2-----2---1--------0-----0--------------
D-----------------------------------------
A-----------------------------------------
E-----------------------------------------


doit4Jesus - 2005-07-21

cmon man, you are RIGHT ON IT!!!


doit4Jesus - 2005-07-21

It is really just a D chord played with a little fingerstyle


kalderash - 2006-05-25

The intro is a standard jazz progression - it's the same notes as submitted, it's just a little easier to play in the 5th posistion

0--0--0--0---
7--7--7--7---
7--7--7--7---
7--6--5------
---------5---
-------------

The pattern is pretty easy to figure out


powerchordguy - 2006-07-16

besides hammering the 2-0, it's perfect. this really helped


jeremycampfan05 - 2006-08-14

so (i think) nobodys right so far on the solo tab... play it like this with the cd:

e---2-------2-0---2--0-2
B----3--3--3-------3----
G--2---2--1-----0---2---
D-----------------------
A-----------------------
E-----------------------

If you want to hammer the 0-2 at the very end or you can pluck it induvidually.
and also here's all the chords for the rest of the song:

verses 1&2:

Bm, D, G, D.
Bm, D, G, D, A.
Pre-Chorus: D, E, G, D.
Chorus: D, E, G, D.
Bridge:D, E, G, D. (Pick or strum those chords-either one. If you pick them it doesnt matter what order.)

Hope this works for everybody, especially the intro tab. Play the whole song with the cd and tell me what you think.

~Jessi Lynne.


Add a comment/correction

Complimentary Christian Ringtones
Dadamobile and CGR have teamed up to bring your favorite Christian artists right to your phone. Sign up today and get 10 complementary ringtones!
Tab Country
Did you know CGR has a sister site w/ country guitar tabs? Well we do! Its called Tab Country. It has a great archive with a lot of country tabs.
Rockin Tabs
Are you looking for a site that has rock guitar tabs? Then Rockintabs.com is the place for you. It is a budding site with many rock guitar tabs. Submit your tab today.
Tab Gallery
Tab Gallery has a compilation of christian, rock, and country tabs all in one place. Come visit us.