Guitar Tabs
song title    band name

Join Us Today!

Don't strum alone...
be a part of the largest online Christian music community. Browse thousands of guitar tabs and chat w/ musicians like yourself.


It's Free!

Newsboys - Cornelius

This tab has been rated a 2.75 out of 5 for accuracy. (4 votes)Sorry, but you must be logged in to rate this tab.
Click here to log-in, or you can click here to register.
(Registration is free)

All songs owned by corresponding publishing company. If you make copies of any song on this website, be sure to report your usage to CCLI.
Song:		Cornelius
Artist:	        Newsboys
Album:          Thrive
Tabbed By:	Devin Schreck (lay_z_boy2@juno.com)
=======================================================================
Tuning Normal   *= artificial harmonic 

Intro/Vs
E-------------|
B-------------|
G---7-7-----7-|
D-7-7-7-7-5-7-|do this many times
A-7-5-5-7-5-5-|
E-5-----5-3---|

Pre-Chorus
E--------------------|       |-----------------------|
B--------------------|       |-----------------------|
G---------------7----|       |-----------------------|
D-9-9-9-9-9-9-5-7----|X4 Then|-----------------------|X2
A-9-9-9-9-9-9-5-5----|       |-----------------------|
E-7-7-7-7-7-7-3------|       |-0-0-5-0-0-0-0-0-5-0-0-|

Chorus
E---------------------------------------------|
B---------------------------------------------|
G---------------------------------------------|
D-*9-*9-*9-*9---7-7-7-7-----------------------|
A-*9-*9-*9-*9---7-7-7-7-----------------------|
E-*7-*7-*7-*7---5-5-5-5-0-0-5-0-0-0-0-0-5-0-0-|

Bridge
E----------|  |-----|
B----------|  |-----|
G-7--------|X2|-7---|X2
D-7-9-7-5--|  |-7-5-|
A-5-9-7-5--|  |-5-5-|
E---7-5-3--|  |---3-|
==================================================================
Note: I do not know if this is correct but it sounds good to me. So please
send me any questions or non-criticizing comments.

Comments about this tab

jesusfreak033ad - 2004-09-13

It looks like a tab... that's my opinion.


johnny bravo - 2005-01-14

i havint played a note but i gave it a 5.0


DCTalk_NB_Freak - 2005-03-14

hey if possiably can we please get some chords i love this song and i want to do it for my youth group please please please


DCTalk_NB_Freak - 2005-03-14

and another thought since wen does cornelious ryhme wit helium???


breakfastboy - 2005-12-07

i think that the verses may be a little bit off but most of it is perfect


breakfastboy - 2005-12-07

i think that the verses may be a little bit off but most of it is perfect
this is song is 1 of my favorite
thanks a lot for posting it!!!!!!!!


Pappy7 - 2006-04-13

hey this looks good and the chords are correct...but the intro is really just going back and forth from an A chord to an Asus chord, then G and then D...its hardcore easy. And also, it may sound messy depending on what sort of distortion your using, but jody davis is actually playing open chords there, not power chords...just thot i'd help out! -drew


Add a comment/correction

Complimentary Christian Ringtones
Dadamobile and CGR have teamed up to bring your favorite Christian artists right to your phone. Sign up today and get 10 complementary ringtones!
Tab Country
Did you know CGR has a sister site w/ country guitar tabs? Well we do! Its called Tab Country. It has a great archive with a lot of country tabs.
Rockin Tabs
Are you looking for a site that has rock guitar tabs? Then Rockintabs.com is the place for you. It is a budding site with many rock guitar tabs. Submit your tab today.
Tab Gallery
Tab Gallery has a compilation of christian, rock, and country tabs all in one place. Come visit us.