Guitar Tabs
song title    band name

Join Us Today!

Don't strum alone...
be a part of the largest online Christian music community. Browse thousands of guitar tabs and chat w/ musicians like yourself.


It's Free!

Relient K - Kick Off

This tab has been rated a 4.80 out of 5 for accuracy. (5 votes)Sorry, but you must be logged in to rate this tab.
Click here to log-in, or you can click here to register.
(Registration is free)

All songs owned by corresponding publishing company. If you make copies of any song on this website, be sure to report your usage to CCLI.
Band:Relient K
Song:Kick Off
Album:The Anatomy of the Tongue in Cheek
Copyright:2001 Gotee Records
Tabbed by: tim bolton (elmerfudd218@webtv.net)

thought i'd tab this song just for the heck of it

Intro:  let each chord ring
e------------------------------------------------]
B------------------------------------------------]
G------------------------------------------------]
D-2--3--4--5--6--7--8--9--9999-9999-9999999999---]
A-2--3--4--5--6--7--8--9--9999-9999-9999999999---]
E-0--1--2--3--4--5--6--7--7777-7777-7777777777---]

(listen to cd for strumming) 
e------------------------------------------------]
B------------------------------------------------]
G--9-----9-----6--4-----6--4--9--6--4--------999-]
D--9--9--9--9--6--4--7--6--4--9--6--4--7--9--999-]
A--7--9--7--9--4--2--7--4--2--7--4--2--7--9--777-]
E-----7-----7--------5-----------------5--7------]

end on:  D--2--
         A--2--  
         E--0--

Comments about this tab

mmggppmgp - 2004-12-29

hehe


mmggppmgp - 2005-01-04

it sounds kind of offf


mmggppmgp - 2005-01-04

nvm


jamforchrist123 - 2005-02-17

Well, Of Corse. Its The KICK Off.


jayemm87 - 2005-04-02

on the ending you play this:


G--9---9----9-----9---9--9---------
D--9-9-9-9--9-9-7-9-9-9--9-9-7-9999
A--7-9-7-9--7-9-7-7-9-7--7-9-7-9999
E----7---7----7-5---7------7-5-7777


I will say that this doesn't really say how many times you hit each chord but it tells you the correct chords.


jayemm87 - 2005-04-02

I made a mistake af ter you play the B power chord the last time you back to the E power chord. sorry bout the mistake.


IlUvSwItChFoOt - 2005-05-20

Nice tab, God Bless God Bless God Bless God Bless God Bless God Bless Eeryone!


Add a comment/correction

Complimentary Christian Ringtones
Dadamobile and CGR have teamed up to bring your favorite Christian artists right to your phone. Sign up today and get 10 complementary ringtones!
Tab Country
Did you know CGR has a sister site w/ country guitar tabs? Well we do! Its called Tab Country. It has a great archive with a lot of country tabs.
Rockin Tabs
Are you looking for a site that has rock guitar tabs? Then Rockintabs.com is the place for you. It is a budding site with many rock guitar tabs. Submit your tab today.
Tab Gallery
Tab Gallery has a compilation of christian, rock, and country tabs all in one place. Come visit us.