Guitar Tabs
song title    band name

Join Us Today!

Don't strum alone...
be a part of the largest online Christian music community. Browse thousands of guitar tabs and chat w/ musicians like yourself.


It's Free!

Pillar - Fireproof

This tab has been rated a 4.14 out of 5 for accuracy. (7 votes)Sorry, but you must be logged in to rate this tab.
Click here to log-in, or you can click here to register.
(Registration is free)

All songs owned by corresponding publishing company. If you make copies of any song on this website, be sure to report your usage to CCLI.
Song: Fireproof
Artist: Pillar
CD: Fireproof

Note: Drop-D tuning.

Key: *=Mute x=Cut (#)=Harmonic 

Intro:
d-------------------------------------------------------------------------]
a-------------------------------------------------------------------------] (x2)
D-0-0*0*0*-2-2*2*2*-3-3*3*3*-5-5*5*5*-0-0*0*0*-2-2*2*2*-3-3*3*3*-5-5*-8-8*]

Verses: 
        d-------------------------      -----0-----0-----0-----0--     ]
        a----0-----0-----0-----0-- (x2) -------------------------- (x2)]
        D-0-0-0-2-2-2-3-3-3-5-5-5-      --0-0-0-2-2-2-3-3-3-5-5-5-     ]

Prechorus: 
           d-0000-2222-3333-5555]
           a-0000-2222-3333-5555] (x2)
           D-0000-2222-3333-5555]

Chorus: 
        d------------------------------7-7-7-7-3x-3x-3x]
        a------------------------------7-7-7-7-3x-3x-3x] (x4)
        D-0-12h012h0-0-12h012h0-0-12h0-7-7-7-7-3x-3x-3x]

Intro

Verse 2

Prechorus

Chorus

Bridge:
d------------------------------------------------------------------------------------
a------------------------------------------------------------------------------------ (x2)
D-(3)(5)-(3)(5)-(3)(5)-(5)(7)-(5)(7)-(5)(7)-(1)(3)-(1)(3)-(1)(3)-(7)(9)-(7)(9)-(7)(9)

        d-0-2--0-2--0-2-0-2--0-2--0-2-2-4--2-4--2-4--2-4-2-4--2-4-2-4-     ]
        a-0-2--0-2--0-2-0-2--0-2--0-2-2-4--2-4--2-4--2-4-2-4--2-4-2-4- (x2)]
        D-0-2--0-2--0-2-0-2--0-2--0-2-2-4--2-4--2-4--2-4-2-4--2-4-2-4-     ]

Chorus x2

Outro:
       d-02-02-02-02-02-xxxx-02
       a-02-02-02-02-02-xxxx-02
       D-02-02-02-02-02-xxxx-02 

If you have any questions, comments, or corrections, E-mail to "guitar_man@cfaith.com". 

Comments about this tab

goldennight3 - 2004-10-10

Somebody needs to do the song light at my feet 'cause it's awesome.


ChurchPunk 2 - 2005-03-07

During the chorus you hit the 13'th fret instead of the 12'th.


ChurchPunk 2 - 2005-03-11

^ I have the song book; thats how I know.


rockin_4_Christ - 2005-05-04

awesome job, i love this song and i love this band, thanks so much.
-Josh


rockin'4God21 - 2005-05-08

This is a good tab

~Bill
















Add a comment/correction

Complimentary Christian Ringtones
Dadamobile and CGR have teamed up to bring your favorite Christian artists right to your phone. Sign up today and get 10 complementary ringtones!
Tab Country
Did you know CGR has a sister site w/ country guitar tabs? Well we do! Its called Tab Country. It has a great archive with a lot of country tabs.
Rockin Tabs
Are you looking for a site that has rock guitar tabs? Then Rockintabs.com is the place for you. It is a budding site with many rock guitar tabs. Submit your tab today.
Tab Gallery
Tab Gallery has a compilation of christian, rock, and country tabs all in one place. Come visit us.