Guitar Tabs
song title    band name

Join Us Today!

Don't strum alone...
be a part of the largest online Christian music community. Browse thousands of guitar tabs and chat w/ musicians like yourself.


It's Free!

P.O.D. - Portrait

This tab has been rated a 3.60 out of 5 for accuracy. (5 votes)Sorry, but you must be logged in to rate this tab.
Click here to log-in, or you can click here to register.
(Registration is free)

All songs owned by corresponding publishing company. If you make copies of any song on this website, be sure to report your usage to CCLI.
Artist: P.O.D.
Title: Portrait
Tabbed by: Tyler Reed - twreed88@yahoo.com


E--5---5-3---3-1---1-0---0-0---0---1---1-------0---0----------------
B----3-----3-----3-----3-----3---3-------1---1-------3---3-3---3----
G------------------------------------2-----2-----2-----2-----2---2--
D-------------------------------------------------------------------    (4x)
A-------------------------------------------------------------------
D-------------------------------------------------------------------

E--------------------------------------------------
B--------------------------------------------------
G--------------------------------------------------
D--2-2-2-0-2-5-2-2-2-0-2-5-2-2-2-0-2-5-2-2-2-0-2---
A--2-2-2-0-2-5-2-2-2-0-2-5-2-2-2-0-2-5-2-2-2-0-2---
D--2-2-2-0-2-5-2-2-2-0-2-5-2-2-2-0-2-5-2-2-2-0-2---

You play that riff for like the whole rest of the song, so I'm not gonna
tab it out.  At the end of the intro (right before he starts singing) he
plays this chord (below) and holds it for less than a second and slides
down all the way. I think it's easier to use your index finger for that
reaching over the top of the fretboard.

                                   E------
                                   B------
                                   G------
                                   D--15--
                                   A--15--
                                   D--15--

Comments about this tab

deerboy - 2005-06-15

nice job. This was exactly how I tabbed it out too. Nice knowing Some one else thinks this is right too.


Add a comment/correction

Complimentary Christian Ringtones
Dadamobile and CGR have teamed up to bring your favorite Christian artists right to your phone. Sign up today and get 10 complementary ringtones!
Tab Country
Did you know CGR has a sister site w/ country guitar tabs? Well we do! Its called Tab Country. It has a great archive with a lot of country tabs.
Rockin Tabs
Are you looking for a site that has rock guitar tabs? Then Rockintabs.com is the place for you. It is a budding site with many rock guitar tabs. Submit your tab today.
Tab Gallery
Tab Gallery has a compilation of christian, rock, and country tabs all in one place. Come visit us.