Guitar Tabs
song title    band name

Join Us Today!

Don't strum alone...
be a part of the largest online Christian music community. Browse thousands of guitar tabs and chat w/ musicians like yourself.


It's Free!

Relient K - What Have You Been Doing Lately?

This tab has been rated a 4.75 out of 5 for accuracy. (4 votes)Sorry, but you must be logged in to rate this tab.
Click here to log-in, or you can click here to register.
(Registration is free)

All songs owned by corresponding publishing company. If you make copies of any song on this website, be sure to report your usage to CCLI.
What Have You Been Doing Lately?
Relient K       
The Anatomy Of The Tongue In Cheek
Written by: Matthew Thiessen
Copyright 2001 Gotee Music (BMI)-Admin. by EMI CMP
Tabbed By: Josiah Pagoota (n2Jesus88@yahoo.com)

Standard Tuning: EADGBe

Chorus:

e--5--55--55--55--55--55--55--55-------------------------------------
B--5--55--55--55--55--55--55--55-------------------------------------
G--6--66--66--66--66--66--66--66---4-4-4-4-/7-7-7-7-4-4-4-4----------
D--7--77--77--77--77--77--77--77---4-4-4-4-/7-7-7-7-4-4-4-4-2-2-2-2--
A----------------------------------2-2-2-2-/5-5-5-5-2-2-2-2-2-2-2-2--
E-----------------------------------------------------------0-0-0-0--

Verse:

e------------------------------------- 
B-------------------------------------
G------------------7------------------
D--7-xxxxxx7-xxxxxx7-xxxxxx-22222222--
A--7-xxxxxx7-xxxxxx5-xxxxxx-22222222--
E--5-xxxxxx5-xxxxxx5-xxxxxx-00000000--

Do the above part twice then do this twice:
e----------------------------------------
B----------------------------------------
G----------------------------/7-777777---
D--7-777777\2-222222/4-444444/7-777777---
A--7-777777\2-222222/4-444444/5-555555---
E--5-555555\0-000000/2-222222/5-555555---

Pre-Chorus:  PALM MUTE!!!!!
e-------------------------------------------------------------------
B-------------------------------------------------------------------
G--77777777------------------------77777777-------------------------
D--7777777722222222444444447777777777777777222222224444444477777777-
A--5555555522222222444444447777777755555555222222224444444477777777-
E----------000000002222222255555555--------000000002222222255555555-

e---------------------------------------------------------------
B---------------------------------------------------------------
G--7-7-7-7-------------------------7-7-7-7-9--(let it ring)-----
D--7-7-7-7-2-2-2-2-4-4-4-4-7-7-7-7-7-7-7-7-9--------------------
A--5-5-5-5-2-2-2-2-4-4-4-4-7-7-7-7-5-5-5-5-7--------------------
E----------0-0-0-0-2-2-2-2-5-5-5-5---------0--------------------

Break:
e---------------------------------------------------------------------
B---------------------------------------------------------------------
G-----------77-77-----------------------------------------------------
D--77-77-77-77-77--66-66-77-77-7\6--44-44-44-44-4\2--44-44-44-44-4\2--
A--77-77-77-55-55--66-66-77-77-7\6--44-44-44-44-4\2--44-44-44-44-4\2--
E--55-55-55-55-55--44-44-55-55-5\4--22-22-22-22-2\0--22-22-22-22-2\0--

REPEAT THE BREAK BUT AT THE END DO THIS:
e--22-22-22-22-2\0-------
B--22-22-22-22-2\0-------
G------------------------

Then play and let ring for a measure:
e--------------
B--0-----------
G--0-----------
D--0-----------
A--------------
E--------------

Order of song is: Chorus, Verse1, PreChorus, Chorus, Verse2, PreChorus,
Chorus, Break(2x), Chorus, Break(2x)

That's it! it's a great song. Any questions or comments email me at
n2Jesus88@yahoo.com. Later!

Comments about this tab

jamforchrist123 - 2005-04-19

One Little Thing.

Break:
e---------------------------------------------------------------------
B---------------------------------------------------------------------
G-----------77-77-----------------------------------------------------
D--77-77-77-77-77--66-66-77-77-7\6--44-44-44-44-4\2--44-44-44-44-4\2--
A--77-77-77-55-55--77-77-77-77-7\6--44-44-44-44-4\2--44-44-44-44-4\2--
E--55-55-55-55-55--44-44-55-55-5\4--22-22-22-22-2\0--22-22-22-22-2\0--
/\
||
||
||




jamforchrist123 - 2005-05-08

Crud, That Didn't Turn Out.


mysnrocks - 2008-01-17

This looks completely accurate, but I have one little thing to add. There's a second guitar part that plays during the break. It's entirely played with octaves and goes like this:

G--9-9--9-9--9-9--7-7--7-7--7/9--9-9--9-14--14-14-14/13---13/14--14-14--14-14--
D--x-x--x-x--x-x--x-x--x-x--x/x--x-x--x--x---x--x--x/-x----x/-x---x--x---x--x--
A--7-7--7-7--7-7--5-5--5-5--5/7--7-7--7-12--12-12-12/11---11/12--12-12--12-12--
E------------------------------------------------------------------------------

G--14-14-14/13---13/14--14-14--14-14--14-14-14/13---
D---x--x--x/-x----x/-x---x--x---x--x---x--x--x/-x---
A--12-12-12/11---11/12--12-12--12-12--12-12-12/11---
E---------------------------------------------------

There's one part where a third guitar briefly comes in. The second time you play the part with all the 13x11s and the 14x12s, the third guitar plays the same thing, but moved down a few frets, like this:

G--11-11--11-11--11-11--11-11-11/9---9/11--11-11--11-11--11-11-11/9--
D---x--x---x--x---x--x---x--x--x/x---x/-x---x--x---x--x---x--x--x/x--
A---9--9---9--9---9--9---9--9--9/7---7/-9---9--9---9--9---9--9--9/7--
E--------------------------------------------------------------------


Add a comment/correction

Complimentary Christian Ringtones
Dadamobile and CGR have teamed up to bring your favorite Christian artists right to your phone. Sign up today and get 10 complementary ringtones!
Tab Country
Did you know CGR has a sister site w/ country guitar tabs? Well we do! Its called Tab Country. It has a great archive with a lot of country tabs.
Rockin Tabs
Are you looking for a site that has rock guitar tabs? Then Rockintabs.com is the place for you. It is a budding site with many rock guitar tabs. Submit your tab today.
Tab Gallery
Tab Gallery has a compilation of christian, rock, and country tabs all in one place. Come visit us.