Guitar Tabs
song title    band name

Join Us Today!

Don't strum alone...
be a part of the largest online Christian music community. Browse thousands of guitar tabs and chat w/ musicians like yourself.


It's Free!

Five Iron Frenzy - You Can't Handle This

This tab has been rated a 4.67 out of 5 for accuracy. (3 votes)Sorry, but you must be logged in to rate this tab.
Click here to log-in, or you can click here to register.
(Registration is free)

All songs owned by corresponding publishing company. If you make copies of any song on this website, be sure to report your usage to CCLI.
Title: You Can't Handle This
Artist: Five Iron Frenzy
Album: Five Iron Frenzy 2: Electric Boogaloo
Lyrics provided by: Keith Hoerig
Tabbed by: Kris Kircher
Revised by: Micah Ortega
E-mail: Kris (soundboardFrenzy@mac.com)

This took me a little while to do.  I also had help with this, so i'm giving
credit where credit is due.  sg(all lowercase) had figured out the bass line
to all of this.  I took that, figured out Micahs solos, and here's what i
got.  The solos are 100% correct. This tab was reviewed and revised by Micah
himself.  So this is an official tab straight from Five Iron Frenzy.  There's
some other stuff that Sonnie and Micah switch off on, all the octave stuff,
see the bottom of the tab for that. it'll be labeled "guitar 2." If u have
any questions, or revisions, please e-mail me. Also if you want the tab with
lyrics included in the tab, feel free to ask, and i'll send it to you.

Intro:
|-----xxxx-----xxxx-----xxxx-----xxxx------|------------------------|-------------------------------|
|-----xxxx-----xxxx-----xxxx-----xxxx------|-10--13-10--------------|---------10--13-10-------------|
|-----xxxx-----xxxx-----xxxx-----xxxx------|---10-----12/10-10/12---|o---10-12--10-----12/10-10/12-o|
|-----xxxx-----xxxx-----xxxx-----xxxx------|---------------------12-|o-10--------------------------o|
|-8-8-xxxx-8-8-xxxx-8-8-xxxx-8-8-xxxx-8/10-|------------------------|-------------------------------|
|-6-6-xxxx-6-6-xxxx-6-6-xxxx-6-6-xxxx-6/08-|------------------------|----------repeat-3-times-------|

|----------------------------|
|----------------------------|
|-----------10-10/12/10~~~~--|
|--12-10--10-----------------|
|----------------------------|
|----------------------------|

Vers. 1  (only play the 1st F if you don't hold the F on the 15th fret above;
otherwise substitue the 1st F for the 15th fret as part of the introduction,
then start on the A in the 2nd line)

Vers. 1
F*                C*
A                 C*
A#
F*                C*

F*
           	  C*
A                 C*
A#                F*      C* C#*



pre-chorus
D*   	   A
C*         G
F          C* C#* D* A
C*         G         A
C*

chorus
F*        C*              A#

|-----xxxx-----xxxx-----xxxx--|
|-----xxxx-----xxxx-----xxxx--|
|-----xxxx-----xxxx-----xxxx--|
|-----xxxx-----xxxx-----xxxx--|
|-8-8-xxxx-8-8-xxxx-8-8-xxxx--|
|-6-6-xxxx-6-6-xxxx-6-6-xxxx--|

F*        C*              A#

|-----xxxx-----xxxx-----xxxx--|
|-----xxxx-----xxxx-----xxxx--|
|-----xxxx-----xxxx-----xxxx--|
|-----xxxx-----xxxx-----xxxx--|
|-8-8-xxxx-8-8-xxxx-8-8-xxxx--|
|-6-6-xxxx-6-6-xxxx-6-6-xxxx--|

Intro:

Verse. 2

pre-chorus
chorus

Intro to bridge
|--------------------|
|--------------------|
|--------------------|
|-----7--10--14--12--|
|--8--5--8---12--10--|
|--6-----------------|

bridge
(palm muted)
G*           A*
A#*               F*
G*                   A*
A#*              F*
G* (octaves) A*
A#*
C*                     D*

chorus (key change here)
G*        D*             C*

|-------xxxx-------xxxx-------xxxx--|
|-------xxxx-------xxxx-------xxxx--|
|-------xxxx-------xxxx-------xxxx--|
|-------xxxx-------xxxx-------xxxx--|
|-10-10-xxxx-10-10-xxxx-10-10-xxxx--|
|-8--8--xxxx-8--8--xxxx-8--8--xxxx--|

G*        C*             A#*
|-------xxxx-------xxxx-------xxxx--|
|-------xxxx-------xxxx-------xxxx--|
|-------xxxx-------xxxx-------xxxx--|
|-------xxxx-------xxxx-------xxxx--|
|-10-10-xxxx-10-10-xxxx-10-10-xxxx--|
|-8--8--xxxx-8--8--xxxx-8--8--xxxx--|


(play intro along with the no no no no no no lyrics at the end)
|--------------------------------|------------------------------------------|
|-10----13--10-------------------|-------------10----13--10-----------------|
|----10---------12/10--10/12-----|o-----10-12-----10---------12/10--10/12--o|
|----------------------------12--|o--10------------------------------------o|
|--------------------------------|------------------------------------------|
|--------------------------------|--------------repeat-3-times--------------|

-----------------------------------------------------------------------------
this section is played along in the chorus, it's the secong guitar part:  i
just figured it out, so i decided to just stick it at the end so it's not too
confusing.  this is the octaves played during the chorus.

Chorus
   no no no,   u can't handle this    hoo hoo hoo, hoo hoo
|-------------------------------------|------------------|
|-------------------------------------|------------------|
|--14-12-10-12-14-12-10-12---07-/-10--|--15----14----12--|
|--xx-xx-xx-xx-xx-xx-xx-xx------------|--xx----xx----xx--|
|--12-10-08-10-12-10-08-10---05-/-08--|--13----12----10--|
|-------------------------------------|------------------|

   no no no,   u can't handle this    hoo hoo hoo, hoo hoo
|-------------------------------------|------------------|
|-------------------------------------|------------------|
|--14-12-10-12-14-12-10-12---07-/-10--|--15----14----12--|
|--xx-xx-xx-xx-xx-xx-xx-xx------------|--xx----xx----xx--|
|--12-10-08-10-12-10-08-10---05-/-08--|--13----12----10--|
|-------------------------------------|------------------|

--------------------------------------------------------------------------

this * next to a power chord means to play this one octave up.
ie: 
F        F*
|-----|  |------|
|-----|  |------|
|-----|  |------|
|-----|  |--11--|
|--3--|  |--9---|
|--1--|  |------|

Comments about this tab

Luthrnstud22 - 2005-04-04

for the intro...sonnie's guitar part goes like dis
F5 G5 D5 C5
F5 G5 Bb5 C5 (all that 2x)


Add a comment/correction

Complimentary Christian Ringtones
Dadamobile and CGR have teamed up to bring your favorite Christian artists right to your phone. Sign up today and get 10 complementary ringtones!
Tab Country
Did you know CGR has a sister site w/ country guitar tabs? Well we do! Its called Tab Country. It has a great archive with a lot of country tabs.
Rockin Tabs
Are you looking for a site that has rock guitar tabs? Then Rockintabs.com is the place for you. It is a budding site with many rock guitar tabs. Submit your tab today.
Tab Gallery
Tab Gallery has a compilation of christian, rock, and country tabs all in one place. Come visit us.