Guitar Tabs
song title    band name

Join Us Today!

Don't strum alone...
be a part of the largest online Christian music community. Browse thousands of guitar tabs and chat w/ musicians like yourself.


It's Free!

Brave Saint Saturn - Shadow of Def

This tab has been rated a 5.00 out of 5 for accuracy. (1 vote)Sorry, but you must be logged in to rate this tab.
Click here to log-in, or you can click here to register.
(Registration is free)

All songs owned by corresponding publishing company. If you make copies of any song on this website, be sure to report your usage to CCLI.
Track: Shadow of Def
Artist: Brave Saint Saturn
Album: So Far From Home
©2000 - 5 Minute Walk Music
Tabbed By: Kris Kircher (soundboardfrenzy@mac.com)

This song is easier than you think. You are basically going to keep your
fingers on a G and C chord. If you have any problems with the song, or
need the lyrics to go along with this to see where to play, feel free
to e-mail me.

This pattern is going to be used and repeated in all of the verses.

Pattern 1:
  Hold in G   Hold in C   Hold in G

|-----------|-----------|-------------0-0--0-0-0--|
|------0----|------3----|------0------0h3--3-3p0--|
|--------0--|----2---2--|--------0----0-0--0-0-0--|
|----0------|--0--------|----0--------x-x--x-x-x--|
|-----------|-----------|-------------x-x--x-x-x--|
|--3--------|-----------|--3----------x-x--x-x-x--|

Pattern 2:
|---------------------------------------------------------|
|---------------------------------------------------------|
|---------------------------------------------------------|
|---------------------------------------------------------|
|--2--2-2-2-2-2-2---5--5-5-5-5-5-5---7--7-7-7-7-7-7---10--|
|--0--0-0-0-0-0-0---3--3-3-3-3-3-3---5--5-5-5-5-5-5---8---|

Pattern 3:
|-----------------------------------------|
|-----------------------------------------|
|--1-1-1-1-1-1-1-1------------------------|
|--2-2-2-2-2-2-2-2------------------------|
|--2-2-2-2-2-2-2-2----7-7-7-7----9-9-9-9--|
|--0-0-0-0-0-0-0-0----5-5-5-5----7-7-7-7--|

Vers. 1 - (Pattern 1)

Pre-Chorus - (Pattern 2)

Chorus - (Pattern 3

Vers. 2 - (Pattern 1)

2nd Pre-Chorus - (Pattern 2)

Chorus - (Pattern 3)

(Donít play here) Frank Tate's rap time.

Chorus - (Pattern 3)

Comments about this tab

Ficus - 2005-06-21

The chords noted in pattern 1 are incorrect. The chords for the verse are as follows:

G, D, G, C, G, D, G

(Chords for pre-chorus are Em, G, Am, C(?) and chorus is E, A, B)


Add a comment/correction

Complimentary Christian Ringtones
Dadamobile and CGR have teamed up to bring your favorite Christian artists right to your phone. Sign up today and get 10 complementary ringtones!
Tab Country
Did you know CGR has a sister site w/ country guitar tabs? Well we do! Its called Tab Country. It has a great archive with a lot of country tabs.
Rockin Tabs
Are you looking for a site that has rock guitar tabs? Then Rockintabs.com is the place for you. It is a budding site with many rock guitar tabs. Submit your tab today.
Tab Gallery
Tab Gallery has a compilation of christian, rock, and country tabs all in one place. Come visit us.