Guitar Tabs
song title    band name

Join Us Today!

Don't strum alone...
be a part of the largest online Christian music community. Browse thousands of guitar tabs and chat w/ musicians like yourself.


It's Free!

This tab has been rated a 3.82 out of 5 for accuracy. (11 votes)Sorry, but you must be logged in to rate this tab.
Click here to log-in, or you can click here to register.
(Registration is free)

All songs owned by corresponding publishing company. If you make copies of any song on this website, be sure to report your usage to CCLI.
Project 86
Spy Hunter
from the upcoming album, also on "this is solid state vol. 3"
drop d tuning

intro:
e                                e
b                                b
g-14-----10--9--10               g
d                      then      d---0-------666---0
a-12-----8---7--8                a---0-------666---0
d                                d---0-------666---0
then scrape your pick across the strings until the verse

verse:
e
b
g
d-0-6-0-6-0--3-0-2-0-3
a-0-6-0-6-0--3-0-2-0-3
d-0-6-0-6-0--3-0-2-0-3

1st bridge (0:49):
e
b
g-------------------------13
d-0--2-2--3-3--6-6--5-5---
a-0--2-2--3-3--6-6--5-5---11
d-0--2-2--3-3--6-6--5-5---

e
b
g-------------------------13--14
d-0--2-2--3-3--6-6--5-5---
a-0--2-2--3-3--6-6--5-5---11--12
d-0--2-2--3-3--6-6--5-5---

chorus:
e
b
g
d-0-0-0--0-0-0
a-0-0-0--0-0-0
d-0-0-0--0-0-0  etc.

verse 
bridge
chorus

2nd bridge (2:26):
e
b
g-x--7h8----7h8----7h8
d-0------6------3-------666--88
a-0------6------3-------666--88
d-0------6------3-------666--88 4x i think


(2:47)
e
b
g
d-13-13-13-13-13
a---------------
d-11-11-11-11-11

1st bridge
chorus

thanks 
josh (chuchdawg@bombdiggity.com)

Comments about this tab

Bind Guitarist - 2004-05-18

Chorus from STBYBB

e---------------------------------
g-------10----10-----10----666----
b----------77----77-----7--777----
d-000-----------------------------
a-000-----------------------------
d-000-----------------------------


savageben - 2004-11-23

the intro is actually played like this:
B 10-10-10-10-6-6-6
G 7 - 7-7 - 7-7-9-9


Bind Guitarist - 2004-11-29

.....and with some flange.


demon-hunter - 2004-12-17

i love this song


SafeHaven - 2004-12-23

Intro:

B--10-xx-10-xx-10-xx-6-xx-5-5-6-6--
G--7--xx--7-xx--7-xx-7-xx-7-7-7-7--

Verse:

D-0-0-6-0-0-6-0-0-3-0-2-0-3-0---0-0-6-0-0-6-0-0-3-0-2-0-3-
A-0-0-6-0-0-6-0-0-3-0-2-0-3-0---0-0-6-0-0-6-0-0-3-0-2-0-3-
D-0-0-6-0-0-6-0-0-3-0-2-0-3-0---0-0-6-0-0-6-0-0-3-0-2-0-3-

The second part has a very small difference: he holds on the 3 instead of immediately hitting an open chord.


TheLime - 2004-12-30

Dude this song rocks like no other. I am a recent fan of Project 86 and this is my favorite so far. SWEET TAB!!


Christianrock08 - 2005-01-20

DDDUUUUUUDDDDEEEE! Awsome tab


burningfaith08 - 2005-01-20

i love this song and the tab i got b4 was really hard and it didnt sound right but this is awsome! good job


rock4christ08 - 2005-01-22

el bueno job-o!


Geekoftheweek - 2005-01-24

actually i think the bridge is like

0-----6-----3-----8
0-3h5-6-3h5-3-3h5-8
0-----6-----3-----8


Geekoftheweek - 2005-01-24

actually i think the bridge is like

0-----6-----3-----8
0-3h5-6-3h5-3-3h5-8
0-----6-----3-----8


dmnhnter - 2005-03-17

i dont understand this but i know this is an awesome song!!!


blindsidelova - 2005-03-24

this isn't exactly the best tab I have ever seen. Maybe its because the song was released early on "This is solid state v. 3" and so they had to give you a basic sketch of the song. Can someone please post the actual song!


Jetix - 2005-04-25

i think its played differently. ill post it here as soon as i can make sense of it.


keller - 2005-05-30

i think that geekoftheweek and safeheaven are right


jordan83 - 2005-12-21

Bind Guitarist:
I dont think that sounds right, but i also think im playing it wrong or with the wrong rhythim

but the chorus for this tab is not it though at all how the crap is all open's anywhere near the song


sXcountry - 2006-06-12

it's a little off...

i know i'm advertising a different site, but go on over to ultimate-guitar.com and download their powertab editor...it's free

there's a great Spy hunter power tab there.


rokit - 2010-02-03

I believe the other guitar part during the chorus goes something like this:

E----5-----5-----5-5------------
B------5-5-6-5-5-6-5-6-6-6-6----
G--------------------7-7-7-7----

I think it's best to just alternate pick and play it loose.


rokit - 2010-02-03

It didn't really post right, so I'll try and make it more clear.

E----5--------------5--------------5----5------------------------
B---------5----5----6----5----5----6----5----6----6----6----6----
G--------------------------------------------7----7----7----7----

If they appear relatively close together that means they should be played at the same time.


rokit - 2010-02-03

lol this is terrible. Here it is again.

E----5---------------5---------------5----5------------------------
B---------5----5----6----5----5----6----5----6----6----6----6----
G------------------------------------------------7----7----7----7----


rokit - 2010-02-03

Also on the main riff he hits the E right before the open and then he holds on the F.

D-- 0 6 0 0 6 0 0 3 0 2 0 3 2
A-- 0 6 0 0 6 0 0 3 0 2 0 3 2
D-- 0 6 0 0 6 0 0 3 0 2 0 3 2

D-- 0 6 0 0 6 0 0 3 0 2 0 3--hold
A-- 0 6 0 0 6 0 0 3 0 2 0 3--hold
D-- 0 6 0 0 6 0 0 3 0 2 0 3--hold


rokit - 2010-02-03

Disregard all my posts, lol. Look at the first post for the chorus. I was confused by what looked like a 77th fret lol. Thought it was a typo. And I guess the verses are only played on one string...


Add a comment/correction

Complimentary Christian Ringtones
Dadamobile and CGR have teamed up to bring your favorite Christian artists right to your phone. Sign up today and get 10 complementary ringtones!
Tab Country
Did you know CGR has a sister site w/ country guitar tabs? Well we do! Its called Tab Country. It has a great archive with a lot of country tabs.
Rockin Tabs
Are you looking for a site that has rock guitar tabs? Then Rockintabs.com is the place for you. It is a budding site with many rock guitar tabs. Submit your tab today.
Tab Gallery
Tab Gallery has a compilation of christian, rock, and country tabs all in one place. Come visit us.