Guitar Tabs
song title    band name

Join Us Today!

Don't strum alone...
be a part of the largest online Christian music community. Browse thousands of guitar tabs and chat w/ musicians like yourself.


It's Free!

Delirious - Deeper

This tab has been rated a 4.00 out of 5 for accuracy. (3 votes)Sorry, but you must be logged in to rate this tab.
Click here to log-in, or you can click here to register.
(Registration is free)

All songs owned by corresponding publishing company. If you make copies of any song on this website, be sure to report your usage to CCLI.
Author/Artist: Delirious; Martin Smith and Stuart Garrard
Title: Deeper
Album: King of Fools
Transcribed by: David Gray
Email: DGray144@aol.com

I have put all the notes from the lead part and the solo on here, so this
is an addition to existing tabs of Deeper. Let me know if you have any
suggestions or improvements!

NB only single notes are written out in full. Whenever Stuart is playing
chords 

I haven't bothered to put the rhythm in - you'll have to listen to the CD.

-|----------|-------------|---------|-----------|---------|-----------|-------
-|----------|-------------|---------|-----------|---------|-----------|-------
-|----------|-------------|---------|-----------|---------|-----------|-------
-|----------|-------------|---------|-----------|---------|-----------|-------
-|5p7-7-7-7-|-7-7-7-7-5-5-|-7-7-7-7-|-7-7-7-5-5-|-7-7-7-7-|-7-7-7-5-5-|-7-7-7-
-|----------|-------------|---------|-----------|---------|-----------|-------
    (Bass)                                                                    

---|-----------|---------|-----------|---------|-----------|---------|--------
---|-----------|-4-5-5-5-|-4-4-5-5-5-|-4-5-5-5-|-4-4-5-5-5-|-4-5-5-5-|-4-4-5--
---|-----------|-4-4-4-4-|-4-4-4-4-4-|-4-4-4-4-|-4-4-4-4-4-|-6-6-6-6-|-6-6-6--
---|-----------|---------|-----------|---------|-----------|---------|--------
-7-|-7-7-7-5-5-|---------|-----------|---------|-----------|---------|--------
---|-----------|---------|-----------|---------|-----------|---------|--------
                 E (lead guitar)       Bsus4                 C#m              

-----|---------|------------|---------|-----------|---------|-----------|-----
-5-5-|-4-5-5-5-|-4-5---7---5|-4-5-5-5-|-4-4-5-5-5-|-4-5-5-5-|-4-4-5-5-5-|-----
-6-6-|-2-2-2-2-|-2-2--------|-4-4-4-4-|-4-4-4-4-4-|-4-4-4-4-|-4-4-4-4-4-|-----
-----|---------|------------|---------|-----------|---------|-----------|-----
-----|---------|------------|---------|-----------|---------|-----------|-----
-----|---------|------------|---------|-----------|---------|-----------|-----
       A                      E                     Bsus4                     

-0-0-0-0-|--0-0-0-0-|-0-0-0-0-|-0---------------------------|------|-------|--
-0-0-0-0-|--0-0-0-0-|-x-x-x-x-|-x---------------------------|------|-------|--
-7-7-7-7-|--7-7-7-7-|-2-2-2-2-|-2---------------------------|------|-------|--
-7-7-7-7-|--7-7-7-7-|-2-2-2-2-|-2---------------------------|------|-------|--
-5-5-5-5-|--5-5-5-5-|-0-0-0-0-|-0---------------------------|7-7-7-|-7-7-7-|--
-x-x-x-x-|--x-x-x-x-|-x-x-x-x-|-x---------------------------|------|-------|--
 D2(add6)             A                 (bass:) Verse 1          

-------------|-----------------|---------------------|-------|----------------
-------------|-----------------|---------------------|-------|----------------
-------------|-----------------|---------------------|-------|----------------
-------------|-----------------|---------------------|-------|----------------
-------5-5-5-|-5-5-5-----------|---------------4-4-4-|-4-4-4-|----------------
-------------|-----------------|---------------------|-------|----------------
    

--------|--------------|---------------------|-------|--------------------|---
--------|--------------|---------------------|-------|--------------------|---
--------|--------------|---------------------|-------|--------------------|---
--------|--------------|---------------------|-------|--------------------|---
--------|--------------|---------------7-7-7-|-7-7-7-|-----------5-5-5----|---
-7-7--7-|-7-7-7--------|---------------------|-------|--------------------|---
 
----------------------|------------------|-------|-----------------|-------|--
----------------------|------------------|-------|-----------------|-------|--
----------------------|------------------|-------|-----------------|-------|--
----------------------|------------------|-------|-----------------|-------|--
--5-5-5---------------|-----------4--4-4-|-4-4-4-|-----------------|-------|--
----------------------|------------------|-------|-----------7-7-7-|-7-7-7-|--
  

----------------0------|--------|-0------|--------|-0---|--0--|-0----|-0----|-
----------------0------|--------|-0------|--------|-0---|--0--|-0----|-0----|-
----------------2------|--------|-2------|--------|-6---|--6--|-4----|-4----|-
----------------2------|--------|-2------|--------|-6---|--6--|-4----|-4----|-
----------------0------|--------|-0------|--------|-4---|--4--|-2----|-2----|-
----------------x------|--------|-2------|--------|-x---|--x--|-x----|-x----|-
 (lead guitar:)        

-0---|--0---------|--0---------|--0--------|--0--|-0----|-0----|-0----|-------
-0---|--0---------|--0---------|--0--------|--0--|-0----|-0----|-0----|-------
-2---|--2---------|--2---------|--2--------|--6--|-6----|-4----|-4----|-------
-2---|--2---------|--2---------|--2--------|--6--|-6----|-4----|-4----|-------
-0---|--0---------|--0---------|--0--------|--4--|-4----|-2----|-2----|-------
-x---|--x---------|--2---------|--2--------|--x--|-x----|-x----|-x----|-------
                 

----------------|---------------|------------|------------|-----------|-------
--------4-5-5-5-|-4-4-5-5-5-----|-4-5-5-5----|-4-4-5-5----|-4-5-5-5---|-------
--------4-4-4-4-|-4-4-4-4-4-----|-4-4-4-4----|-4-4-4-4----|-6-6-6-6---|-------
----------------|---------------|------------|------------|-----------|-------
----------------|---------------|------------|------------|-----------|-------
----------------|---------------|------------|------------|-----------|-------
 CHORUS: 

-----------|--------|--------|---------|-----------|-----------|----------|---
-4-4-5-5-5-|-4-5-5-4|-5--7-5-|-4-5-5-5-|-4-4-5-5-5-|---4-5-5-5-|-4-5-5-5--|---
-6-6-6-6-6-|-2-2-2-2|-2------|-4-4-4-4-|-4-4-4-4-4-|---4-4-4-4-|-4-4-4-4--|---
-----------|--------|--------|---------|-----------|-----------|----------|---
-----------|--------|--------|---------|-----------|-----------|----------|---
-----------|--------|--------|---------|-----------|-----------|----------|---
 
---------0--|--0-----|---------------0---------|------------------------------
---------0--|--0-----|---------------x---------|------------------------------
---------7--|--7-----|---------------2---------|------------------------------
---------7--|--7-----|---------------2---------|------------------------------
---------5--|--5-----|---------------0---------|------------------------------
---------x--|--x-----|---------------x---------|------------------------------
                                      

-|-------------------|----------|--------|---------------|-------------|------
-|-------------------|----------|--------|---------------|-------------|------
-|-----------------4-|----4-----|----4---|----4----------|-----------4-|----4-
-|--------------2----|2-2-----2-|--0-----|0-0-----0------|-------------|------
-|-------------------|----------|--------|---------------|---------4---|4-4---
-|-------------------|----------|--------|---------------|-------------|------
   Verse 2   

---|-----------|------------|---------------------|--------|------------------
---|-----------|------------|---------------------|--------|------------------
---|--------4--|----4-------|-----------------4---|--4-----|------------------
---|-----------|------------|---------------2----2|2-----2-|------------------
-4-|------2----|2-2-----2---|---------------------|--------|------------------
---|-----------|------------|---------------------|--------|------------------
         

--------|------------|------------|---------|----|--------|-------------------
--------|------------|------------|---------|----|--------|-------------------
---2----|2-----------|-----------2|----2----|---2|----2---|-------------------
-0---0-0|------------|------------|---------|----|--------|-------------------
--------|------------|---------4--|4-4---4--|-2--|2-2---2-|-------------------
--------|------------|------------|---------|----|--------|-------------------
     

----------------------------------------------------------|----------------|--
----------------------------------------4-5-5-5-----------|-----4-4-5-5-5--|--
----------------------------------------4-4-4-4-----------|-----4-4-4-4-4--|--
----------------------------------------------------------|----------------|--
----------------------------------------------------------|----------------|--
----------------------------------------------------------|----------------|--
   

-------------|--------------|--------------------------|-------|--------------
--4-5-5-5----|------4-5-5-5-|-------------------4-5-5-4|5-7-5--|-4-5-5-5------
--6-6-6-6----|------6-6-6-6-|-------------------2-2-2-2|2------|-4-4-4-4------
-------------|--------------|--------------------------|-------|--------------
-------------|--------------|--------------------------|-------|--------------
-------------|--------------|--------------------------|-------|--------------
      

------------|-----------|-------------------------------|----------|----------
------------|-4-4-5-5-5-|-------------------------------|----------|----------
------------|-4-4-4-4-4-|----------------------------7--|---7------|-6--------
------------|-----------|----------------------------7--|---7------|-6--------
------------|-----------|----------------------------5--|---5------|-4--------
------------|-----------|-------------------------------|----------|----------
 								   Bridge

-------|------|--------|-------------------|-------------|--------------------
-------|------|--------|-------------------|-------------|--------------------
-6-----|---4--|-4------|-------------2-----|-2-----------|-2------------------
-6-----|---4--|-4------|-------------2-----|-2-----------|-2------------------
-4-----|---2--|-2------|-------------0-----|-0-----------|-0------------------
-------|------|--------|-------------------|-------------|-2------------------


-|-------------------------|-----|---------------|------------------|---------
-|-------------------------|-----|---------------|------------------|---------
-|---6---------------------|-4---|-6-------------|-7----------------|-2-------
-|---6---------------------|-4---|-6-------------|-7----------------|-2-------
-|---4---------------------|-2---|-4-------------|-5----------------|-0-------
-|-------------------------|-----|---------------|------------------|---------
 
----|---|-------|----------|----------|------------|-------|--------|---------
----|---|-------|----------|----------|------------|-------|--------|---------
----|-2-|-4-----|-4--------|-6--------|-6----------|-7-----|-7------|--5------
----|-2-|-4-----|-4--------|-6--------|-6----------|-7-----|-7------|--5------
----|-0-|-2-----|-2--------|-4--------|-4----------|-5-----|-5------|--3------
----|---|-------|----------|----------|------------|-------|--------|---------
          

-|--------|-------|----------------|-----|-----|-----|-----|-----|------|-----
-|--------|-------|----------------|-----|-----|-----|-----|-----|------|-----
-|5-------|-------|----------------|-----|-----|-----|-----|-----|------|-----
-|5-------|-------|----------------|-----|-----|-----|-----|-----|------|-----
-|3-------|-------|----------------|-4---|-4---|2----|-2---|4----|-4----|-----
-|--------|-------|----------------|-----|-----|-----|-----|-----|------|-2---
 				  (bass and synth while lead has feedback  

-|------|-------------------------|-------|---------|-------|---------|-------
-|------|------------------4--5-7-|-4-5---|-4-5-7-5-|-4-5---|-4-5-7-5-|-4-5---
-|------|-------------------------|-----4-|---------|-----4-|---------|-----4-
-|------|-------------------------|-------|---------|-------|---------|-------
-|------|-------------------------|-------|---------|-------|---------|-------
-|-2----|-------------------------|-------|---------|-------|---------|-------
 before solo)          	  (SOLO)                                           

-|---------|---7---|--------|--------|-------4-|-------|-----------|----------
-|-4-5-5-4-|-5---5-|-4-5-7--|--4-5---|-4-5-7---|-4-5---|-----------|----------
-|---------|-------|--------|------4-|---------|-----4-|-----------|---4---7--
-|---------|-------|--------|--------|---------|-------|--5-----7--|----------
-|---------|-------|--------|--------|---------|-------|-----------|----------
-|---------|-------|--------|--------|---------|-------|-----------|----------
                                                          (Waa waa  pedal)    

--|-------|------|------------------------------------------------------------
--|----5--|------|------------------------------------------------------------
--|-6-----|------|------------------------------------------------------------
--|-------|------|------------------------------------------------------------
--|-------|------|------------------------------------------------------------
--|-------|------|------------------------------------------------------------
                 CHORUS
-----------------------|-----------|---------|----------|---------|-----------
-----------------------|-----------|---------|----------|---------|-----------
-----------------------|---7-------|--7------|---2------|-2-------|-----------
-----------------------|---7-------|--7------|---2------|-2-------|-----------
-----------------------|---5-------|--5------|---0------|-0-------|-----------
-----------------------|-----------|---------|----------|---------|-----------



Main Chords used are:

   E      D2(add6)    C#m7     Bsus4   F#maj9    A2       Cmaj9
x79900    x57700     x46600   x24400   202200   x02200   x35500

and:

   E                  C#m       Bsus4             A
xxx45x               xxx65x   xxx45x            xxx25x

So the chords underneath the main riff are something like:
| E   |    |Bsus4   |     | C#m   |     | A    |      |

and the bass player should be playing E, B, C#, A throughout the riff

	***Make sure you go all the way on this one!***

Comments about this tab

stratocaster67 - 2005-02-24

Im told it is totaly wrong just kidding its good


tikigodz3 - 2005-07-12

its hot buh this person is gay


Add a comment/correction

Complimentary Christian Ringtones
Dadamobile and CGR have teamed up to bring your favorite Christian artists right to your phone. Sign up today and get 10 complementary ringtones!
Tab Country
Did you know CGR has a sister site w/ country guitar tabs? Well we do! Its called Tab Country. It has a great archive with a lot of country tabs.
Rockin Tabs
Are you looking for a site that has rock guitar tabs? Then Rockintabs.com is the place for you. It is a budding site with many rock guitar tabs. Submit your tab today.
Tab Gallery
Tab Gallery has a compilation of christian, rock, and country tabs all in one place. Come visit us.