Guitar Tabs
song title    band name

Join Us Today!

Don't strum alone...
be a part of the largest online Christian music community. Browse thousands of guitar tabs and chat w/ musicians like yourself.


It's Free!

Juliana Theory, The - August in Bethany

This tab has been rated a 1.67 out of 5 for accuracy. (3 votes)Sorry, but you must be logged in to rate this tab.
Click here to log-in, or you can click here to register.
(Registration is free)

All songs owned by corresponding publishing company. If you make copies of any song on this website, be sure to report your usage to CCLI.
The Juliana Theory - August in Bethany
Album: Understand this is a Dream

Tune down a full step (DGCFAD) on both guitars.

Verse chords:
    G   Dsus Cadd9
D --3----3-----3---
A --3----3-----3---
F --0----2-----0--- x4
C --0----0-----2---
G --2----0-----3---
D --3----x-----x---


guitar two comes in with this riff:

Riff 1:

D --7------------8p7-----10-----
A -----8-----8--------8------8--
F --------7---------------------  x16
C ------------------------------
G ------------------------------
D ------------------------------

Interlude:

guitar one strums verse chords
(one downstroke each except for the second Cadd9 which gets two)

G  Dsus Cadd9  Cadd9
x2

guitar two plays Riff 2 
                 Riff 3 

Riff 2:                Riff 3:

D ---2-3-2--------------2-3-3p2--------
A -3-------3-3--------3---------3-5----
F ------------------------------------- 
C -------------------------------------
G -------------------------------------
D -------------------------------------

Verse 2:

guitar one repeats strumming pattern from verse 1, guitar two plays Riff 1

G Dsus Cadd9 x4

(riff one plays alone twice)

then:

Bridge:

both guitars:

D -------x-------x--x---x------x---x---x--------------------
A -------x-------x--x---x------x---x---x--------------------
F -------x-------x--x---x------x---x---x--------------------
C -------7-------9-10---5-----10--12--10--------------------
G -------7-------9-10---5-----10--12--10--------------------
D -------5-------7--8---3------8--10---8--------------------

D -------x-------x--x---x------x---x---x--------------------
A -------x-------x--x---x------x---x---x--------------------
F -------x-------x--x---x------x---x---x--------------------
C -------7-------9-10---5-----10--12---3--------------------
G -------7-------9-10---5-----10--12---3--------------------
D -------5-------7--8---3------8--10---1--------------------

x2 

Interlude 2:

guitar 1 strums verse chords, guitar 2 plays this riff
                               (with riff 1 at the end)

Riff 4:

D ----------------------------------------------------------
A ---------------------------------------------8------------
F -----------------7---7----------------7---7----7----------
C --10-9-7-5-5---5---5---5---10-9-7-5-----5-----------------
G ------------------------------------5---------------------
D -------------0--------------------------------------------

D --------------------------  --7--------8p7---10-----------
A --------------------------  ----8---8------8----8---------
F -----------------7---7----  ------7-----------------------
C --10-9-7-5-5---5---5---5--  ------------------------------
G --------------------------  ------------------------------
D -------------0------------  ------------------------------

End:

guitar one:

   G   Dsus Cadd9
D --3----3-----3---
A --3----3-----3---
F --0----2-----0---
C --0----0-----2--- x2
G --2----0-----3---
D --3----x-----x---

Comments about this tab

viceboy - 2004-10-28

...all wrong...

first chord played is a C.. there is an F and a couple barre chords... too tired to remember which


robanthony - 2005-03-19

actually this tab is completely right. if you would've noticed the tuning of the guitar, the first chord played really IS a C, even though its a "G" shape. despite what you thought it looked like, it sounds dead on.

this is because most TJT songs are tuned down a full step (DGCFAD) then the low string tuned down to DROP-C (CGCFAD). if this tab was played in standard tuning, then yeah it would be a completely different key.

nicely done. this is the best tab of this song that i've seen.


robanthony - 2005-06-09

err.. i meant "F" the first chord is an "F".


Add a comment/correction

Complimentary Christian Ringtones
Dadamobile and CGR have teamed up to bring your favorite Christian artists right to your phone. Sign up today and get 10 complementary ringtones!
Tab Country
Did you know CGR has a sister site w/ country guitar tabs? Well we do! Its called Tab Country. It has a great archive with a lot of country tabs.
Rockin Tabs
Are you looking for a site that has rock guitar tabs? Then Rockintabs.com is the place for you. It is a budding site with many rock guitar tabs. Submit your tab today.
Tab Gallery
Tab Gallery has a compilation of christian, rock, and country tabs all in one place. Come visit us.