Guitar Tabs
song title    band name

Join Us Today!

Don't strum alone...
be a part of the largest online Christian music community. Browse thousands of guitar tabs and chat w/ musicians like yourself.


It's Free!

Audio Adrenaline - Hands and Feet

This tab has been rated a 1.67 out of 5 for accuracy. (3 votes)Sorry, but you must be logged in to rate this tab.
Click here to log-in, or you can click here to register.
(Registration is free)

All songs owned by corresponding publishing company. If you make copies of any song on this website, be sure to report your usage to CCLI.
Hands and Feet
Audio Adrenaline

i think this is the correct version to the intro and chorus.


   D   D/A   D/Em     D/Em     E------------2---0------     A A A A A
                               B-----------------------  
                               G-----------------------
                               D-----------------------
                               A-----------------------
                               E--3--2---0-------------


this is the sliding part after the chorus. you need to play this fast and 
  ------------------------------------- slide your finger to 10 and the rest. 
  -------------------------------------
  -------------------------------------
  -------------------------------------
  0-1-2-3-4-5-6-7-8-9-10-9--10-9-8-7-6-5-4-3-2-1-0    (2times)
  -------------------------------------

but when you play the chorus the after the pre chorus the notes are a
little different.


------------2---0----------
-----------------------3--2
---------------------------
---------------------------
--------------------2------
--3--2--0------------------

Comments about this tab

preacherkid13 - 2006-11-11

Actually the intro looks like this.
-------------------------------
-------------------------------
-------------------------------
-------------------------------
-0-1/109-105----0-1/109-105
-------------------------------


Add a comment/correction

Complimentary Christian Ringtones
Dadamobile and CGR have teamed up to bring your favorite Christian artists right to your phone. Sign up today and get 10 complementary ringtones!
Tab Country
Did you know CGR has a sister site w/ country guitar tabs? Well we do! Its called Tab Country. It has a great archive with a lot of country tabs.
Rockin Tabs
Are you looking for a site that has rock guitar tabs? Then Rockintabs.com is the place for you. It is a budding site with many rock guitar tabs. Submit your tab today.
Tab Gallery
Tab Gallery has a compilation of christian, rock, and country tabs all in one place. Come visit us.