Guitar Tabs
song title    band name

Join Us Today!

Don't strum alone...
be a part of the largest online Christian music community. Browse thousands of guitar tabs and chat w/ musicians like yourself.


It's Free!

This tab has been rated a 5.00 out of 5 for accuracy. (2 votes)Sorry, but you must be logged in to rate this tab.
Click here to log-in, or you can click here to register.
(Registration is free)

All songs owned by corresponding publishing company. If you make copies of any song on this website, be sure to report your usage to CCLI.
Author/Artist: Bloodgood
Title: Let my people go
Album: Out of the darkness
Transcribed by: Guitarhead
Email: guitarhead@gmx.de
Homepage: www.guitarhead.de

I started tabbing the solo but you can play it several ways and I guess
most of you don't like this tapping stuff (nor do I).


Satan let my people go

------------------------------------------------------------------------------
----------------------3-------------------------------------------------------
-2--4/5----4/5----4/5---5--4-h5p4---------------------------------------------
--------5------4--------------------------------------------------------------
------------------------------------------------------------------------------
------------------------------------------------------------------------------


------------------------------------------------------------------------------
------------------------------------------------------------------------------
-2----------------------------------------------------------------------------
-2-2-2------2-2--2-2-2-5------------------------------------------------------
-0-0-0-h3p0-0-0--0-0-0-3--5---------------------------------------------------
--------------------------3---------------------------------------------------
   m m      m m  m m m

------------------------------------------------------------------------------
------------------------------------------------------------------------------
-2-------------------------2-------------------5-4-2--------------------------
-2------2-----5------2-----0------2------------------5------------------------
-0--0-0-0-0-0-3--0-0-0-0-0----0-0-0-0-0-5-------------------------------------
----------------------------------------3--3-3--------------------------------
    m m   m m    m m   m m    m m   m m    m m

------------------------------------------------------------------------------
------------------------------------------------------------------------------
-2-----2---2-----------------2---------5-4-2----------------------------------
-0-0-0-0-0-0-2-----2---2-----0---2-----------5--------------------------------
-------------0-0-0-0-0-0-5-------0-0-0----------------------------------------
-------------------------3----------------------------------------------------
   m m   m     m m   m             m m

------------------------------------------------------------------------------
------------------------------------------------------------------------------
-2-----2---2------------------------------2-----------------------------------
-0-0-0-0-0-0-2-----2---2------------------2-2-2------2-2----------------------
-------------0-0-0-0-0-0-5-5-5-5-5-5-55/6-0-0-0-h3p0-0-0----------------------
-------------------------3-3-3-3-3-3-33/4-------------------------------------
   m m   m     m m   m   m m m m m m        m m      m m  break

------------------------------------------------------------------------------
------------------------------------------------------------------------------
-2-----2---2---------------------------------------------2--2-2-2-2-2-2-2-2---
-0-0-0-0-0-0-2-----2---2---------------------------------0--0-0-0-0-0-0-0-0---
-------------0-0-0-0-0-0-5-5-5-5-5-5-5-5-4-4-4-4-4-4-4-4----------------------
-------------------------3-3-3-3-3-3-3-3-2-2-2-2-2-2-2-2----------------------
   m m   m     m m   m   m m m m m m m m m m m m m m m m                solo

-|5h7t12|3h7t10|0h3t7|1h5t8|3h7t10|0h3t7|-------------------------------------
-|------|------|-----|-----|------|-----|-------------------------------------
-|-5x---|-5x---|-5x--|-5x--|-5x---|-5x--|-------------------------------------
-|------|------|-----|-----|------|-----|-------------------------------------
-|------|------|-----|-----|------|-----|-------------------------------------
-|------|------|-----|-----|------|-----|-------------------------------------
  Am     G      Em    F     G      Em

Comments about this tab

Da Flufsta - 2006-01-18

there is one thing about the intro that I think isn't quite right. at the end where it goes 4h5p4 I think it should be just 4-5-4

other then that I think you nailed it


Add a comment/correction

Complimentary Christian Ringtones
Dadamobile and CGR have teamed up to bring your favorite Christian artists right to your phone. Sign up today and get 10 complementary ringtones!
Tab Country
Did you know CGR has a sister site w/ country guitar tabs? Well we do! Its called Tab Country. It has a great archive with a lot of country tabs.
Rockin Tabs
Are you looking for a site that has rock guitar tabs? Then Rockintabs.com is the place for you. It is a budding site with many rock guitar tabs. Submit your tab today.
Tab Gallery
Tab Gallery has a compilation of christian, rock, and country tabs all in one place. Come visit us.