Guitar Tabs
song title    band name

Join Us Today!

Don't strum alone...
be a part of the largest online Christian music community. Browse thousands of guitar tabs and chat w/ musicians like yourself.


It's Free!

Plus One - Going Crazy

This tab has been rated a 4.00 out of 5 for accuracy. (1 vote)Sorry, but you must be logged in to rate this tab.
Click here to log-in, or you can click here to register.
(Registration is free)

All songs owned by corresponding publishing company. If you make copies of any song on this website, be sure to report your usage to CCLI.
Artist: Plus one  
Song: Going Crazy
Album: Obvious
Tabbed by: Devin Schreck
==============================================================================
Drop C both guitars one Acoustic one Electric

Intro and chorus for the Electric Guitar
D----------------------------------------|
A----------------------------------------|
F--7-7--5-5------------7-7--5-5----------|
C--7-7--5-5--3-3--5-5—-7-7—-5—5-3-3—-8-7-|
G--5-5--3-3--3-3--5-5—-5-5—-3—3-3-3—-8-7-|
C------------3-3--5-5-----------3-3—-8-7-|

Intro and Vs. for the Acoustic Guitar
D---------5------|
A-------5---5----|
F-----7----------|
C---7------------|
G-5--------------|
C----------------|
The chorus for the Acoustic is the same as the Electric

Bridge:
D------------------------------------------------------------------------------------|
A------------------------------------------------------------------------------------|
F------------------------------------------------------------------------------------|
C-0-0—-5-5—5-5-5--0-0—-3-3—-8-8—8-8-8-10-10—-5-5-5-5-5—-3-3-—3-3—-5-5-5-5-5—3-3-3-3-3|
G-0-0—-5-5—5-5-5--0-0—-3-3—-8-8—8-8-8-10-10—-5-5-5-5-5—-3-3—-3-3—-5-5-5-5-5-3-3-3-3-3|
C-0-0—-5-5-5-5-5--0-0—-3-3—-8-8—8-8-8-10-10—-5-5-5-5-5—-3-3—-3-3—-5-5-5-5-5-3-3-3-3-3|

Mini solo:
D--------------------------------------5h6-5h6-5h6-5h6-5--5h6-5h6-5h6-10-6-5-3|
A--5h6-5h6-5h6-5h6-5--5h6-5h6-5h6-5-8-6---------------------------------------|

D—5h6-5h6-5h6-5h6-5-5h6-5h6-5h6-555555-10-6-5-3|
A----------------------------------------------|
============================================================================
If you have any Questions just E-mail Me at lay_z_boy2@juno.com

Comments about this tab

No comments/corrections found. Add your own

Complimentary Christian Ringtones
Dadamobile and CGR have teamed up to bring your favorite Christian artists right to your phone. Sign up today and get 10 complementary ringtones!
Tab Country
Did you know CGR has a sister site w/ country guitar tabs? Well we do! Its called Tab Country. It has a great archive with a lot of country tabs.
Rockin Tabs
Are you looking for a site that has rock guitar tabs? Then Rockintabs.com is the place for you. It is a budding site with many rock guitar tabs. Submit your tab today.
Tab Gallery
Tab Gallery has a compilation of christian, rock, and country tabs all in one place. Come visit us.