Guitar Tabs
song title    band name

Join Us Today!

Don't strum alone...
be a part of the largest online Christian music community. Browse thousands of guitar tabs and chat w/ musicians like yourself.


It's Free!

Relient K - Failure To Excommunicate

This tab has been rated a 3.40 out of 5 for accuracy. (5 votes)Sorry, but you must be logged in to rate this tab.
Click here to log-in, or you can click here to register.
(Registration is free)

All songs owned by corresponding publishing company. If you make copies of any song on this website, be sure to report your usage to CCLI.
Relient K
Failure to Excommunicate

Intro  (first guitar)

e-|--10-10-10-10-10-10-9-9-9-9-9-9-12-12-12-12-12-12-11-11-12-12-11------------
B-|----------------------------------------------------------------------------
G-|----------------------------------------------------------------------------
D-|----------------------------------------------------------------------------
A-|----------------------------------------------------------------------------
E-|----------------------------------------------------------------------------
                                                                              
Verse 
e-|----------------------------------------------------------------------------
B-|----------------------------------------------------------------------------
G-|-4----7-7-7-7-7-------------2-2-2-2-2-------------7-7-7-7-7-----------------
D-|-4-5--7-7-7-7-7--7-7-7-7-7--2-2-2-2-2--5-5-5-5-5--7-7-7-7-7--7-7-7-7-7------
A-|-2-5--5-5-5-5-5--7-7-7-7-7--4-4-4-4-4--5-5-5-5-5--5-5-5-5-5--7-7-7-7-7------
E-|---3-------------5-5-5-5-5-------------3-3-3-3-3-------------5-5-5-5-5------
                                                                              
Riff 1
e-|----------------------------------------------------------------------------
B-|----------------------------------------------------------------------------
G-|--------------------------------------------------------------------7-7-7-7-
D-|-5-x-x-x-x-x--7-x-x-x-x-x--8-x-x-x-x-x--9-9--7-7--5-5-5-5--7-7-7-7--7-7-7-7-
A-|-5-x-x-x-x-x--7-x-x-x-x-x--8-x-x-x-x-x--9-9--7-7--5-5-5-5--7-7-7-7--5-5-5-5-
E-|-3-x-x-x-x-x--5-x-x-x-x-x--6-x-x-x-x-x--7-7--5-5--3-3-3-3--5-5-5-5----------
                                                                              

e-|---------------------------------
B-|---------------------------------
G-|------------------------------7--
D-|--9-9--7-7--5-5-5-5--7-7-x-x--7--
A-|--9-9--7-7--5-5-5-5--7-7-x-x--5--
E-|--7-7--5-5--3-3-3-3--5-5-x-x-----
          

Back to intro

Verse 

Riff 1


Riff 2  (Light strumming through this)

e-|------------------------------------------------
B-|------------------------------------------------
G-|---7--------------------------------------------
D-|---7--7---9---7---5--------------9---7---5------
A-|---5--7---9---7---5---X4---------7---7---5-X1--
E-|------5---7---5---3--------------7---5---3------
                                                                              
The end

Comments about this tab

{LFJ}guitarist - 2004-12-18

nice tab! good job


relient_k304 - 2006-04-30

thats cool and everything but the beginning.... could u go like this?

e-|---------------------------------
B-|---------------------------------
G-|---------------------------------
D-|-----4---4---4---4---4--4---4--4
A-|--2----2---2---2---0--0---0---0--
E-|---------------------------------


bigntalboy13 - 2006-06-11

u no the intro is a bass, and i am not sure were ur getting some of ur stuff that concerns the intro


keyblade - 2006-08-08

pretty good except for the intro but look at both intro tabs in the coments I have put a better version but this is the best version ive looked at so far. Instead of using 2s and 4s I use 7s and 9s other than the first 4
4
2


9
9
I just find using 7 is easier for me but you have your own opinion.
also the riff is wrong but I dont have the time to corect it i'll post a coment if I find a corect tab for it.


keyblade - 2006-08-08

sorry about the number thing here are the numbers I put in

4
4
2

and

9
9
7

the system took out my spaces


Add a comment/correction

Complimentary Christian Ringtones
Dadamobile and CGR have teamed up to bring your favorite Christian artists right to your phone. Sign up today and get 10 complementary ringtones!
Tab Country
Did you know CGR has a sister site w/ country guitar tabs? Well we do! Its called Tab Country. It has a great archive with a lot of country tabs.
Rockin Tabs
Are you looking for a site that has rock guitar tabs? Then Rockintabs.com is the place for you. It is a budding site with many rock guitar tabs. Submit your tab today.
Tab Gallery
Tab Gallery has a compilation of christian, rock, and country tabs all in one place. Come visit us.