Guitar Tabs
song title    band name

Join Us Today!

Don't strum alone...
be a part of the largest online Christian music community. Browse thousands of guitar tabs and chat w/ musicians like yourself.


It's Free!

Clear - Stand And Die

This tab has not yet been rated for accuracy.Sorry, but you must be logged in to rate this tab.
Click here to log-in, or you can click here to register.
(Registration is free)

All songs owned by corresponding publishing company. If you make copies of any song on this website, be sure to report your usage to CCLI.
Song:Stand And Die 
Band: Clear
CD: Follow The Narrow
Label: Ardent Records (2000)
Tabbed by: Jeff (Noo1home@aol.com)

h=hammer
p=pull
()=optional


Intro & verses:

G
e-----3--------------------3-------------------3--------------------
B-----3--------------------3-------------------3--------------------
G----(0)------------------(0)-----------------(0)-------------------
D---------0h2-0----0-----------0h2-0----0----------0h2-0----0-------
A--2------------0h2----2-2-----------0h2----2------------0h2--------
E--3-------------------2-2------------------0-----------------------

C2      Dsus 
e--3--3-3--3---3-3--3------
B--3--3-3--3---3-3--3------
G--0--0-0--0h2-2-2--2p0----    Play 1 time for intro
D--2-----------------------    play 2x for verse
A--3-----------------------
E--------------------------


Pre-Chorus 

e-------------------|--------------------------------
B-------------------|--------------------------------
G------0------------|--------0--2--------------------
D------0----0-------|----2---0--2--------------------
A--2-2---0h2--2-----|----3---------------------------
E--3-3--------2-----|--------------------------------
Play  x          "...Set on the open..." 


Chorus Riff

e----------3---
B----------3---
G----------2---  then strum the Dsus a few times
D--------2-----
A--2-2-2-3-----
E--0-2-3-------


Bridge

e--3--------3--3--3--3--------3--3-----------3--3--------3--3--3--3----
B--3--------3--3--3--3--------3--3-----------3--3--------3--3--3--3----
G--0--------0--0--2--0--------0--2--2-0------0--0--------0--0--2--0----
D--0------0-2--0-----0------0-2--0------0-2--2--0------0-2--0----------
A--2--0-2---3--------2--0-2---3--------------3--2--0-2---3-------------
E--3-----------------3--------------------------3----------------------

e----------------------------
B----------------------------
G--2-2-0h2-2--0h2-2--0h2-2---
D----------------------------
A----------------------------
E----------------------------

Listen to the cd for strumming



Verse 1

Steadfast Stephen saw his chance to open wide
Unveiling lies, delivering his skin and bones
                                                                      
Upon the hate-filled battle cries
                                                                      

Pre-Chorus

They rushed him and they stoned him
                                                                      
But his sites were set on the open skies

                                                                      
Chorus

C2             G   G/Gb            G/E 
I'm in the wake of martyr's gone before me,

Riff 
waiting to be tried
 
C2             G    G/Gb          G/E 
Is the strength and trust I have in You

Riff 
Enough that I would stand and die?

Intro 
Stand and die
                                                                   

Verse 2

Caught in Cassie was a candle, burning from the
                                                                      
wick of life
                                                                      
She had found it when she finally turned to You,
                                                                      
that graceful night
                                                                      

Pre-Chorus

When they asked her if she knew You
                                                                      
What else could she reply?

                                                                      
Bridge


Chorus


Verse 3

Now it's nearly twenty hundred years
                                                                      
Since You were crucified
                                                                      
With my heart and soul and all You gave me
                                                                      
I would give my life


**(Pause)

Chorus


**After the third verse there is a pause (about 5 seconds) 

That's about it. E-mail me if you have any questions/comments.

Comments about this tab

No comments/corrections found. Add your own

Complimentary Christian Ringtones
Dadamobile and CGR have teamed up to bring your favorite Christian artists right to your phone. Sign up today and get 10 complementary ringtones!
Tab Country
Did you know CGR has a sister site w/ country guitar tabs? Well we do! Its called Tab Country. It has a great archive with a lot of country tabs.
Rockin Tabs
Are you looking for a site that has rock guitar tabs? Then Rockintabs.com is the place for you. It is a budding site with many rock guitar tabs. Submit your tab today.
Tab Gallery
Tab Gallery has a compilation of christian, rock, and country tabs all in one place. Come visit us.