Guitar Tabs
song title    band name

Join Us Today!

Don't strum alone...
be a part of the largest online Christian music community. Browse thousands of guitar tabs and chat w/ musicians like yourself.


It's Free!

This tab has been rated a 3.00 out of 5 for accuracy. (2 votes)Sorry, but you must be logged in to rate this tab.
Click here to log-in, or you can click here to register.
(Registration is free)

All songs owned by corresponding publishing company. If you make copies of any song on this website, be sure to report your usage to CCLI.
song:reject
album:reborn
artist:living sacrifice
1997 solidstate records
tabbed by:matt iveson 

ok all, this is going to be messy. bear with me and we'll have one awesome song

as you may or may not know, this is in Db tuning.

1st part:
d-0-0-0-0-0-0-0-0-0-0-
a-0-0-0-0-0-0-0-0-0-0-
D-0-0-0-0-0-0-0-0-0-0-

d-0-0-0-0-0-0-0-0-0-0h1
a-0-0-0-0-0-0-0-0-0-0h1
D-0-0-0-0-0-0-0-0-0-0h1

etc, ect,

d-0-0-0-0-0-0-0-0-0-0-0-0-0-0-0/12-12-12-12-12-
a-0-0-0-0-0-0-0-0-0-0-0-0-0-0-0/12-12-12-12-12-
D-0-0-0-0-0-0-0-0-0-0-0-0-0-0-0/12-12-12-12-12-

d-0...
a-0...
D-0...

now, for that neat grindy whining noise here, take the palm of your left hand
and place it at the 17th fret over the g and b strings like so, where "x" rep-
resents your left hand (this is for a right handed guitar):
g-17x-
b-17x-
easy enough, now take your stumming hand and grind that pick up and down
the g and b strings gradually sliding it up towards the bridge for the higher
pitch.

next part:
d-1-1-1-1-1-1-1-1-1-1-
a-1-1-1-1-1-1-1-1-1-1-
D-0-0-0-0-0-0-0-0-0-0-

d-0-0-0-0-0-0-0-0-0h1-
a-0-0-0-0-0-0-0-0-0h1-
D-0-0-0-0-0-0-0-0-0h1-

d-0-0-0-0-0-0-0-0-0-0-0-0-0-0-0/12-12-12-12-12-
a-0-0-0-0-0-0-0-0-0-0-0-0-0-0-0/12-12-12-12-12-
D-0-0-0-0-0-0-0-0-0-0-0-0-0-0-0/12-12-12-12-12-

chorus:
d-0-6-0-6-5/2-
a-0-6-0-6-5/2- 
D-0-6-0-6-5/2-
with this over it:
d-0-1-0-1-4-1-0-1-0-1-4-1-0-1-0-1-4-1-0-1-0-1-4-1-

d-0-00-000-0-0-00-000-
a-0-00-000-0-0-00-000-
D-0-00-000-0-0-00-000-

then, with no particular rythm:
D-0-11-0-11-0-11-0-11-

soloy thing:
g-------------14----------------14----14-----
d-13-12-13-12-------13-12-13-12----12----12--
a----------------12--------------------------

then rythm launches back into the chorus while you, the intrepid lead player,
do a partial mute over the 5th fret, then the 6th fret for that neat effect.
like so where "x" indicates a partial mute:
d0-5x-0-5x-0-5x-0-5x-0-5x-0-5x-0-5x-0-5x-0-6x-0-6x-0-6x-0-6x-0-5x-0-6x-0-5x-0-6x
a0-5x-0-5x-0-5x-0-5x-0-5x-0-5x-0-5x-0-5x-0-6x-0-6x-0-6x-0-6x-0-5x-0-6x-0-5x-0-6x
D0-5x-0-5x-0-5x-0-5x-0-5x-0-5x-0-5x-0-5x-0-6x-0-6x-0-6x-0-6x-0-5x-0-6x-0-5x-0-6x
if it sounds weird when you do it, hit the strings harder and use down-up 
strumming.

the rest is just rythm and palm muting.

please, if you have any questions or comments, e-mail me at metalcore.x@juno.com
-God bless-

Comments about this tab

iamthemetalking - 2004-09-03

I think the chorus should be...
d-0--6--0--6-0-2-3--
a-0--6--0--6-0-2-3--
D-0--6--0--6-0-2-3--


iamthemetalking - 2004-09-03

sorry, same thing as i said b4 about the chorus, accept...
instead of this
d......0-2-3
a......0-2-3
D......0-2-3

it should be
d....0-2h3
a....0-2h3
D....0-2h3


Belovedrawks - 2005-02-27

Don't forget in the video, the other player(now POD player) does some harmonics or something below the neck . . .


Add a comment/correction

Complimentary Christian Ringtones
Dadamobile and CGR have teamed up to bring your favorite Christian artists right to your phone. Sign up today and get 10 complementary ringtones!
Tab Country
Did you know CGR has a sister site w/ country guitar tabs? Well we do! Its called Tab Country. It has a great archive with a lot of country tabs.
Rockin Tabs
Are you looking for a site that has rock guitar tabs? Then Rockintabs.com is the place for you. It is a budding site with many rock guitar tabs. Submit your tab today.
Tab Gallery
Tab Gallery has a compilation of christian, rock, and country tabs all in one place. Come visit us.