Guitar Tabs
song title    band name

Join Us Today!

Don't strum alone...
be a part of the largest online Christian music community. Browse thousands of guitar tabs and chat w/ musicians like yourself.


It's Free!

Joel, Phil - Be Number One

This tab has been rated a 5.00 out of 5 for accuracy. (1 vote)Sorry, but you must be logged in to rate this tab.
Click here to log-in, or you can click here to register.
(Registration is free)

All songs owned by corresponding publishing company. If you make copies of any song on this website, be sure to report your usage to CCLI.
Phil Joel
"Be number one"

Ok i just have to say that this entire cd is awesome. That said let's start.

chords:
G  355xxx
G# 466xxx
C# x133xx
F# 144xxx
A  688xxx


main riff1:
-----------------------------------------------------------------------------
-----------------------------------------------------------------------------
-4-4-4-4-4-4-4-4-------------------------------------------------------------
-4-4-4-4-4-4-4-4-6-6-6-6-6-6-6-6-2-2-2-2-2-2-2-2-2-2-2-2-2-4-4-4-------------
-2-2-2-2-2-2-2-2-6-6-6-6-6-6-6-6-2-2-2-2-2-2-2-2-2-2-2-2-2-4-4-4-------------
-----------------4-4-4-4-4-4-4-4-0-0-0-0-0-0-0-0-0-0-0-0-0-2-2-2-------------

main riff2:
-----------------------------------------------------------------------------
-----------------------------------------------------------------------------
-4-4-4-4-4-4-4-4-------------------------------------------------------------
-4-4-4-4-4-4-4-4-6-6-6-6-6-6-6-6-2-2-2-2-2-2-2-2-2-6-6-6---4-4-4-------------
-2-2-2-2-2-2-2-2-6-6-6-6-6-6-6-6-2-2-2-2-2-2-2-2-2-6-6-6---4-4-4-------------
-----------------4-4-4-4-4-4-4-4-0-0-0-0-0-0-0-0-0-4-4-4---2-2-2-------------

Verse riff1:
-----------------------------------------------------------------------------
-----------------------------------------------------------------------------
-6-6-6-6-6-6-6-6-------------------------------------------------------------
-6-6-6-6-6-6-6-6-6-6-6-6-6-6-6-6-4-4-4-4-4-4-4-4-4-4-4-4-4-6-6-6-------------
-4-4-4-4-4-4-4-4-6-6-6-6-6-6-6-6-4-4-4-4-4-4-4-4-4-4-4-4-4-6-6-6-------------
-----------------4-4-4-4-4-4-4-4-2-2-2-2-2-2-2-2-2-2-2-2-2-4-4-4-------------

Verse riff2:
-----------------------------------------------------------------------------
-----------------------------------------------------------------------------
-6-6-6-6-6-6-6-6-------------------------------------------------------------
-6-6-6-6-6-6-6-6-6-6-6-6-6-6-6-6-4-4-4-4-4-4-4-4-4-8-8-8-8-6-6-6-------------
-4-4-4-4-4-4-4-4-6-6-6-6-6-6-6-6-4-4-4-4-4-4-4-4-4-8-8-8-8-6-6-6-------------
-----------------4-4-4-4-4-4-4-4-2-2-2-2-2-2-2-2-2-6-6-6-6-4-4-4-------------

solo riff:
------2-----2----------------------------------------------------------------
-4-3H4---3H4-----------------------------------------------------------------
-----------------------------------------------------------------------------
-----------------------------------------------------------------------------
-----------------------------------------------------------------------------
-----------------------------------------------------------------------------



now for the song:

intro:
main riff1

Chorus:
now there are 2 guitars in this song. guitar 1 playes the chords once while
guitar 2 strums them with palm mute(it plays them as written in the riff)

(main riff1)
I want you to be a part of every thing I do
(main riff2)
I want you to be number one
(main riff1)
I want you to be a part of every thing I do
(main riff2)
I want you to be number one

Verse 1:
here the guitars are both playing as written.

(verse riff1)
  If any man would come after me
(verse riff2)
  Let him take up his cross and follow me to David
(verse riff1)
  If any man would want to save his life he would loose it
(verse riff2)
  If any man would lose his life for me he will save it

Chorus 2:

(main riff1)                     (solo riff)
I want you to be a part of every thing I do
(main riff2)            (solo riff)
I want you to be number one
(main riff1)                     (solo riff)
I want you to be a part of every thing I do
(main riff2)            (solo riff)
I want you to be number one

Bridge:

B
Tell me what good is it if a man
G#
If a man gain the whole world
F#                             G#
oh oh oh and yet he looses his sole?
  A B
yeah tell me what good is it if a man
G#
If a man gains the whole world
F#                       G#
oh and yet he looses his sole?

repeat chorus-1st guitar only and with much reverb

reapeat chorus-both playing as written

end with "be number one"

that should be right. as always, email me with problems, feedback, etc. at
jbell_3@hotmail.com. thnx all!

Comments about this tab

gunk sk8r - 2005-04-26

this cd is awsome


Add a comment/correction

Complimentary Christian Ringtones
Dadamobile and CGR have teamed up to bring your favorite Christian artists right to your phone. Sign up today and get 10 complementary ringtones!
Tab Country
Did you know CGR has a sister site w/ country guitar tabs? Well we do! Its called Tab Country. It has a great archive with a lot of country tabs.
Rockin Tabs
Are you looking for a site that has rock guitar tabs? Then Rockintabs.com is the place for you. It is a budding site with many rock guitar tabs. Submit your tab today.
Tab Gallery
Tab Gallery has a compilation of christian, rock, and country tabs all in one place. Come visit us.