Guitar Tabs
song title    band name

Join Us Today!

Don't strum alone...
be a part of the largest online Christian music community. Browse thousands of guitar tabs and chat w/ musicians like yourself.


It's Free!

This tab has been rated a 5.00 out of 5 for accuracy. (1 vote)Sorry, but you must be logged in to rate this tab.
Click here to log-in, or you can click here to register.
(Registration is free)

All songs owned by corresponding publishing company. If you make copies of any song on this website, be sure to report your usage to CCLI.
                             The Way
                             Stryper
                              Solo

Hey what's up again i am tabbing the solo now and i would have to say
this is a great solo, and oz uses the whammy bar so tastfully it is
amazing if you just listen to what the gift he has got from god.
Here it is.

Tab Notation:
W- Whammy bar bend
V- Vibrato
H- Hammer on
P- Pull off
B- Bend
S- Slide
B/R- Bend and Release
             W           
E|-W------13-13-----------------------
B|-13--13-----------------------------
G|---W--------------------------------
D|---15-------------------------------
A|------------------------------------
E|------------------------------------

E|-------------------------------------------------------V---|
B|--H-P-P------H-P-P------H-P-P------H-P-P--8-9-11-9-8---8---|
G|-3-5-3-0----5-7-5-0----5-6-5-0----6-8-6-0-----------10-----|
D|-----------------------------------------------------------|
A|-----------------------------------------------------------|
E|-----------------------------------------------------------|

E|---------------------------------------------|
B|-------------8-6-4----6-4--------------------|
G|-------5-7-8-------------7--------7-8-10-----|
D|-5-6-8----------------------6-8-10-----------|
A|---------------------------------------------|
E|---------------------------------------------|

E|----------------------------------------------|
B|-8-9-11-9-8--8-B/R-----H--P----H-P----H-P-----|
G|-----------10--10-----8-10-8--7-9-7--5-7-5----|
D|----------------------------------------------|
A|----------------------------------------------|
E|----------------------------------------------|

E|-W----------------------------------------|
B|-13-W--W--W--W----------------------------|
G|----15-13-12-10---------------------------|
D|------------------------------------------|
A|------------------------------------------|
E|------------------------------------------|
  B then pull up on whammy only on 16 then vibrato it
E|-16-------------------------------------------------------------------|
B|------H--P--S------H--P--S------H--P--S----H--P-S----H-P-S----H-P-S-V-|
G|----13-15-13\12--12-13-12\10--10-12-10\8--8-10-8\7--7-8-7\5--5-7-5\3--|
D|----------------------------------------------------------------------|
A|----------------------------------------------------------------------|
E|----------------------------------------------------------------------|

E|-13-15-16-15-13--15-13--13--------------------------------
B|---------------16-----16--16-15-13-16-15-13--15-13--------
G|-------------------------------------------15-----15------
D|---------------------------------------------------13-----
A|----------------------------------------------------------
E|----------------------------------------------------------

Alright finally done to do the rest just complete this pattern just a
little bit more, and at the end hit the c on the a string.  This last
part is very fast and is all picked very fast so good luck and God
bless you all.  Enjoy.

For any questions just email me at thwtd7@aol.com.

Comments about this tab

No comments/corrections found. Add your own

Complimentary Christian Ringtones
Dadamobile and CGR have teamed up to bring your favorite Christian artists right to your phone. Sign up today and get 10 complementary ringtones!
Tab Country
Did you know CGR has a sister site w/ country guitar tabs? Well we do! Its called Tab Country. It has a great archive with a lot of country tabs.
Rockin Tabs
Are you looking for a site that has rock guitar tabs? Then Rockintabs.com is the place for you. It is a budding site with many rock guitar tabs. Submit your tab today.
Tab Gallery
Tab Gallery has a compilation of christian, rock, and country tabs all in one place. Come visit us.