Guitar Tabs
song title    band name

Join Us Today!

Don't strum alone...
be a part of the largest online Christian music community. Browse thousands of guitar tabs and chat w/ musicians like yourself.


It's Free!

This tab has been rated a 5.00 out of 5 for accuracy. (1 vote)Sorry, but you must be logged in to rate this tab.
Click here to log-in, or you can click here to register.
(Registration is free)

All songs owned by corresponding publishing company. If you make copies of any song on this website, be sure to report your usage to CCLI.
The Kind That Could
by .rod LAVER
transcribed by Jordan Dahl, thejball@hotmail.com

there is a very unusual little riff used in this song.
it is the intro and verse parts. palm muting throughout,
pick up and down quickly. i've done my best here...

^ = down
v = up

intro:

 ^ v ^  v  ^  v  ^ v ^ v ^ v ^ v...
-----10-10-10-10-9-9-5-5-7-7-7-7-8-8-8-8-8-8-3-3-3-3-3-3
-5-5-5--5--5--5--5-5-5-5-5-5-5-5-5-5-5-5-5-5-5-5-5-5-5-5
--------------------------------------------------------

10-10-10-10-9-9-5-5-7-7-7-7-8-8-8-8-8-8-3-3-3-3
5--5--5--5--5-5-5-5-5-5-5-5-5-5-5-5-5-5-5-5-5-5           
-----------------------------------------------

-3-3-3-3-5-5-5-5-8-8-8-8-8-8-3-3-1-3-1-3-3-3
---------------------------------1-1-1-1-1-1
-5-5-5-5-5-5-5-5-5-5-5-5-5-5-5-5------------

5-5-5-5-5-5-5-5-5-5-8-8-8-8-8-8-3-3-1-3-1-3-1-3-1-3--
-----------------------------------------------------
5-5-5-5-5-5-5-5-5-5-5-5-5-5-5-5-5-5------------------


riff 1:
  D         A      Bb C  x2
e-------------------------------
b-------------------------------
g--7------\-2--2---3--5---------
D--7------\-2--2---3--5---------
A--5------\-0--0---1--3---------
D-------------------------------

now play second and third lines above
then to verse

verse:
same rhythm as intro
^v ^ v...
55-1010-99-99-99-99-77-88-88-88-33-33
55-5-5--55-55-55-55-55-55-55-55-55-55
-------------------------------------

55-1010-1010-1010-55-77-77-88-88-88-33-33
55-5-5--5-5--5-5--55-55-55-55-55-55-55-55
-----------------------------------------

55-55-55-55-88-88-88-33-33-13-13-33-33
---------------------------11-11-11-11
55-55-55-55-55-55-55-55-55----------

55-55-55-55-88-88-88-33-33-3/
---------------------11-11---
55-55-55-55-55-55-55---------


refrain:       ____________ _____________ ____________ 
              |1,3 ending  |2            |4
e--------------3-2-x-------|3-2-x--------|------------
b--------------3-3-x-------|3-3-x--------|-3----------
g----7-6-3-2-x-2-2-x---3--o|2-2-x--3/5--o|-2----------
D--0-7-6-3-2-x---------3--o|-------3/5--o|-0----3-----
A--0-5-4-1-0-x---------1---|-------1/3---|-0----3-----
D--0-----------------------|-------------|-0----3-----

sometimes for 3rd ending:
   ^v  ^v   
|--32-------
|--33-------
|--22--x3---
|------x3---
|------x1---
|-----------

that you un- der-stand
  Bb  F   C   G  A  
e--------------------------------------------------------------
b--------------------------------------------------------------
g-3-------5--------------------------------------------------10
D-3---3---5---5--7-10-9-5-10-9-3-10-9-9--7-10-9-5-10-9-3-10-9--
A-1---3---3---5------------------------------------------------
D-----3-------5------------------------------------------------

e-----------------------------------------------
b-----------------------------------------------
g---------------------------------------------10
D-7-10-9-5-10-9-3-10-9-9--7-10-9-5-10-9-3-10-9--
A-----------------------------------------------
D-----------------------------------------------

pick each note twice quickly
e-10-13-12--13-12--13-12-12br---10-13-12--13-12--13-12/15--x2
b---------13-----11---------------------13-----11----------


riff 1 over:
i just want you to pick me up and
i just need you to pick me up and
just one last time all i need is
all i need is


ending:   

e---------------------------
b--------------------------3
g----7-6-3-2-x---7-6-3-2-x-2
D--0-7-6-3-2-x-0-7-6-3-2-x-0
A--0-5-4-1-0-x-0-5-4-1-0-x-0
D--0-----------0-----------0

Comments about this tab

No comments/corrections found. Add your own

Complimentary Christian Ringtones
Dadamobile and CGR have teamed up to bring your favorite Christian artists right to your phone. Sign up today and get 10 complementary ringtones!
Tab Country
Did you know CGR has a sister site w/ country guitar tabs? Well we do! Its called Tab Country. It has a great archive with a lot of country tabs.
Rockin Tabs
Are you looking for a site that has rock guitar tabs? Then Rockintabs.com is the place for you. It is a budding site with many rock guitar tabs. Submit your tab today.
Tab Gallery
Tab Gallery has a compilation of christian, rock, and country tabs all in one place. Come visit us.