Guitar Tabs
song title    band name

Join Us Today!

Don't strum alone...
be a part of the largest online Christian music community. Browse thousands of guitar tabs and chat w/ musicians like yourself.


It's Free!

PFR - You

This tab has not yet been rated for accuracy.Sorry, but you must be logged in to rate this tab.
Click here to log-in, or you can click here to register.
(Registration is free)

All songs owned by corresponding publishing company. If you make copies of any song on this website, be sure to report your usage to CCLI.
You
by PfR from the album "Disappear"
written by Joel Hanson and Gordon Kennedy
(c)2001 Winning Pitch Music/Careers- BMG Music Pub. Inc./River Oaks Music Co.
(BMI), Universal Music Corp./Bo Cut Songs (ASCAP) 

tabbed by guitarplayer4jc@msn.com


Intro and verse riff:  (this doesn't include the bass part)
e|---------0-----------------0-----------------0------------------------------
B|---1--------1--------1--------1--------1--------1-------0h1--1--0-h1p0------
G|--2---2--------2----2---2--------2----2---2--------2---2-----2--0-----------
D|----------------------------------------------------------------------------
A|----------------------------------------------------------------------------
E|----------------------------------------------------------------------------

You thought you could reach the sky
Never knew it's much too high

You believed that you could change
The world with love
Yeah love, how strange

e|---2--2-2--3--2-------------------------------------------------------------
B|---3------------------------------------------------------------------------
G|---2------------------------------------------------------------------------
D|---0------------------------------------------------------------------------
A|----------------------------------------------------------------------------
E|----------------------------------------------------------------------------

Am                 C              F
Every war that you fought was not in vain
Dm     Am        Bb
If someone's set free
Am             C              F
Every scar you endured, every bit of pain
    Dm        Am      Bb
Has left it's mark on me


Those you've touched can't stay the same
Now the angels say your name

Am                 C              F
Every war that you fought was not in vain
Dm     Am        Bb
If someone's set free
Am             C              F
Every scar you endured, every bit of pain
    Dm        Am      D
Has left it's mark on me

[repeat]

There ya go!  I hope I did alright, I didn't spend as much time on this as I
should have.  It's the third song I've figured out today.  Woo hoo!  I'm on a
roll!  Anyhow, this is a beautiful song. Have fun and God bless!  

Comments about this tab

Beuralis - 2005-03-30

I'm still *fairly* new at learning guitar, and my interest would've never sky-rocketed like it has since I've heard PfR's music. I'm looking foward to trying out this tab you've created for "You". Could you posslbly create and submit a tab for "Me"? I like that song alot as well.


Take Care!


Add a comment/correction

Complimentary Christian Ringtones
Dadamobile and CGR have teamed up to bring your favorite Christian artists right to your phone. Sign up today and get 10 complementary ringtones!
Tab Country
Did you know CGR has a sister site w/ country guitar tabs? Well we do! Its called Tab Country. It has a great archive with a lot of country tabs.
Rockin Tabs
Are you looking for a site that has rock guitar tabs? Then Rockintabs.com is the place for you. It is a budding site with many rock guitar tabs. Submit your tab today.
Tab Gallery
Tab Gallery has a compilation of christian, rock, and country tabs all in one place. Come visit us.