Guitar Tabs
song title    band name

Join Us Today!

Don't strum alone...
be a part of the largest online Christian music community. Browse thousands of guitar tabs and chat w/ musicians like yourself.


It's Free!

This tab has been rated a 4.00 out of 5 for accuracy. (2 votes)Sorry, but you must be logged in to rate this tab.
Click here to log-in, or you can click here to register.
(Registration is free)

All songs owned by corresponding publishing company. If you make copies of any song on this website, be sure to report your usage to CCLI.
Band:East West
Song:Wake
Album:The light in Guinevere's garden
Copyright 2001:Floodgate Records
Tuning:D,A,D,G,B,E--guitar TAB

This is my first time tabbing a song out all on my own. So if it doesn't
completly sound correct, just post the revised version; or email it to me
at jdkuckspike@hotmail.com

verse:
       pm---|
|------------|
|------------|
|-8888-------|
|-7777-0-0-0-|
|------0-0-0-|
|------0-0-0-|

after verse:
        distorted bass------------------|
|------|---------------------------------|------|
|------|---------------------------------|------|
|-8888-|---------------------------------|-8888-|
|-7777-|---------------------------------|-7777-|
|------|---------------------------------|------|
|------|-0-1-3-0-3--0-1-3-0-3--0-1-3-0-3-|------|

last time:
  bass----------------|
|----------------------|
|----------------------|
|----------------------|
|-0-1-3-0-3--0-1-3-0-3-|

chorus:
|---------------------------------|
|---------------------------------|
|---------------------------------|
|-0-1-3-0-3--0-1-3-0-3--0-1-3-0-3-|
|-0-1-3-0-3--0-1-3-0-3--0-1-3-0-3-|
|-0-1-3-0-3--0-1-3-0-3--0-1-3-0-3-|

GO BACK TO VERSE,
THEN AFTER VERSE,
AND CHORUS AGAIN.

interlude:

|---------------|----------------|
|---------------|----------------|
|---------------|----------------|
|-7---5--4-4--6-|-7---5--4-4--6~-|
|-7---5--4-4--6-|-7---5--4-4--6~-|
|-7---5--4-4--6-|-7---5--4-4--6~-|
 let ring----------------|  *last note ring then feedback.

2nd interlude:
  pm---|
|-----------|
|-----------|
|-----------|
|-000-0-888-|
|-000-0-777-|
|-000-0-000-|
        *slight P.M. on the zero's

After-"GO!!"
  pm---|
|-----------|
|-----------|
|-----------|
|-000-0-888-|
|-000-0-777-|
|-000-0-----|

|------|
|------|
|------| BACK TO THE CHORUS
|-12\\-| 
|-12\\-|
|-12\\-|

outro:
  pm------|
|------------|
|------------|
|------------|
|-00-0-0--01-|
|-00-0-0--01-|
|-00-0-0--01-|
           *last note ring and fade.

That's it, I guess and if its wrong figure it out and post the correct
version.  Otherwise, it sounds close enough. And now it's on to "Nephesh",
hopefully it's easier than this one. (I'll try to post the chord version
later.)

Comments about this tab

No comments/corrections found. Add your own

Complimentary Christian Ringtones
Dadamobile and CGR have teamed up to bring your favorite Christian artists right to your phone. Sign up today and get 10 complementary ringtones!
Tab Country
Did you know CGR has a sister site w/ country guitar tabs? Well we do! Its called Tab Country. It has a great archive with a lot of country tabs.
Rockin Tabs
Are you looking for a site that has rock guitar tabs? Then Rockintabs.com is the place for you. It is a budding site with many rock guitar tabs. Submit your tab today.
Tab Gallery
Tab Gallery has a compilation of christian, rock, and country tabs all in one place. Come visit us.