Guitar Tabs
song title    band name

Join Us Today!

Don't strum alone...
be a part of the largest online Christian music community. Browse thousands of guitar tabs and chat w/ musicians like yourself.


It's Free!

This tab has not yet been rated for accuracy.Sorry, but you must be logged in to rate this tab.
Click here to log-in, or you can click here to register.
(Registration is free)

All songs owned by corresponding publishing company. If you make copies of any song on this website, be sure to report your usage to CCLI.
Embodyment
Assembly Line Humans
off of The Narrow Scope of Things

If you have a question, comment, correction, or if you were able to use
this tab, email me @ brockytheavenger@hotmail.com

Yes, I know they use 7-string guitars, but this is tabbed for a 6 string,
and makes sense.

Tune: C-G-C-F-A-D
(down one step, plus drop D tune)

I don't have the rough one-string demo intro, but......

Riff1
[----------------------------------------------------------]
[----------------------------------------------------------]
[----------------------------------------------------------]
[-8--7--0--7-----------------------------------------------]
[-8--7--0--7---7---7---7---7-------------------------------]
[-8--7--0--7---7---7---7---7-------------------------------]

Riff2
[----------------------------------------------------------]
[----------------------------------------------------------]
[----------------------------------------------------------]
[-8--7--0--7----10-10-10-10-10-10-10-10-10-10--------------]
[-8--7--0--7----10-10-10-10-10-10-10-10-10-10--------------]
[-8--7--0--7----10-10-10-10-10-10-10-10-10-10--------------]

Riff3
[----------------------------------------------------------]
[----------------------------------------------------------]
[----------------------------------------------------------]
[-8--7--0--7--0-0-7-0-7-0-0-7-0-7-0-0-7-0------------------]
[-8--7--0--7--0-0-7-0-7-0-0-7-0-7-0-0-7-0------------------]
[-8--7--0--7--0-0-7-0-7-0-0-7-0-7-0-0-7-0------------------]

Riff 4
              3x] 
[---------------]------------------------------------------]
[---------------]------------------------------------------]
[---------------]------------------------------------------]
[4-4--4-4--5s2--]-5-5-5-5-5-5-5----------------------------]
[2-2--2-2--3s2--]-5-5-5-5-5-5-5----------------------------]
[---------------]-5-5-5-5-5-5-5----------------------------]

Fill1
[------------------------------------------]
[------------------------------------------]
[------------------------------------------]
[-2---2--2--2------------------------------]
[-2---2--2--2------------------------------]
[-2---2--2--2------------------------------]


Riff 5
[----------------------------------------------------------]
[----------------------------------------------------------]
[----------------------------------------------------------]
[-5--5--5--5------2---2--2--2------------------------------]
[-5--5--5--5------2---2--2--2------------------------------]
[-5--5--5--5------2---2--2--2------------------------------]

Fill 2
[--------------]
[--------------]
[--------------]
[-8--7--0--7---]
[-8--7--0--7---]
[-8--7--0--7---]

 (not tabbed)
: Riff1 4x
: Riff2 8x (Assembly line Humans, pumped with lies)  
: Riff 3 4x (GET..OFF..MY..BACK)  
Then Riff 1 4x (please...please)
: Riff4 4x (Swallow..your pride) Then play Fill1 1x
: Riff5 3x (Harriet Tubman will..you set the captives free)


  (I think they repeat it this time)
: Riff2 4x
: Riff 3 4x (GET..OFF..MY..BACK) Then play Fill 2

Comments about this tab

No comments/corrections found. Add your own

Complimentary Christian Ringtones
Dadamobile and CGR have teamed up to bring your favorite Christian artists right to your phone. Sign up today and get 10 complementary ringtones!
Tab Country
Did you know CGR has a sister site w/ country guitar tabs? Well we do! Its called Tab Country. It has a great archive with a lot of country tabs.
Rockin Tabs
Are you looking for a site that has rock guitar tabs? Then Rockintabs.com is the place for you. It is a budding site with many rock guitar tabs. Submit your tab today.
Tab Gallery
Tab Gallery has a compilation of christian, rock, and country tabs all in one place. Come visit us.