Guitar Tabs
song title    band name

Join Us Today!

Don't strum alone...
be a part of the largest online Christian music community. Browse thousands of guitar tabs and chat w/ musicians like yourself.


It's Free!

Thousand Foot Krutch - Lift It

This tab has been rated a 4.33 out of 5 for accuracy. (9 votes)Sorry, but you must be logged in to rate this tab.
Click here to log-in, or you can click here to register.
(Registration is free)

All songs owned by corresponding publishing company. If you make copies of any song on this website, be sure to report your usage to CCLI.
Lift It
Thousand Foot Krutch

E  :---------3------|-------3--------|-----3-----3----|-3--------------|
B  :-----------3----|---------3------|-------3-----3--|---3------------|
G  :-------------0--|-----------0----|---------0-----0|-----0----------|
D  :---------------2|-------------0--|----------------|-------0--------|
A  :0-2-3--3--------|----------------|----------------|---------0-2-3--|
E  :----------------|-2---2---------0|---0------------|----------------|

E  :--3---------3---|3-3---3-3-3-3---|----3---3-3---3-|3-3-----------3-|
B  :----3-------3---|3-3---3-3-3-3---|----3---3-3---3-|3-3-------------|
G  :------0-----2---|2-2---2-2-2-0---|----0---0-0---0-|0-0-------------|
D  :--------2---0---|0-0---0-0-0-2---|----2---2-2---2-|2-2-------------|
A  :3---------------|------------2---|----2---2-2---2-|2-2--0-2-3--3---|
E  :----------------|----------------|----------------|----------------|

E  :------------3---|----------3-----|3-----3---------|-------3--------|
B  :3-------------3-|------------3---|--3-----3-------|---------3------|
G  :--0-------------|0-------------0-|----0-----0-----|-----------0----|
D  :----2-----------|--0-------------|------------0---|-------------2--|
A  :----------------|----------------|--------------0-|2-3--3----------|
E  :------2---2-----|----0---0-------|----------------|----------------|

E  :-3---3-3---3-3-3|-3-------3-----3|-----3----------|------3---------|
B  :-3---3-3---3-3-3|-3---------3----|-3-----3--------|--------3-------|
G  :-2---2-2---2-2-2|-0-----------0--|---0-----0------|----------0-----|
D  :-0---0-0---0-0-0|-2--------------|-----------0----|------------2---|
A  :----------------|-2--------------|-------------0-2|-3--3-----------|
E  :----------------|----------------|----------------|----------------|

E  :3---3-3---3-3-3-|3-------3-----3-|----3-----------|-----3---------3|
B  :3---3-3---3-3-3-|3---------3-----|3-----3---------|-------3-------3|
G  :2---2-2---2-2-2-|0-----------0---|--0-----0-------|---------0-----2|
D  :0---0-0---0-0-0-|2---------------|----------0-----|-----------2---0|
A  :----------------|2---------------|------------0-2-|3--3------------|
E  :----------------|----------------|----------------|----------------|

E  :---3-3---3-3-3-3|-------3---3-3--|-3-3-3----------|
B  :---3-3---3-3-3-3|-------3---3-3--|-3-3-3----------|
G  :---2-2---2-2-2-0|-------0---0-0--|-0-0-0----------|
D  :---0-0---0-0-0-2|-------2---2-2--|-2-2-2----------|
A  :---------------2|-------2---2-2--|-2-2-2----------|
E  :----------------|----------------|----------------|
                                               This is where the chorus starts


after this you can probably figure out the rest of the song
the last part that goes hard into distortion goes

E  :----------------|----------------|----------------|----------------|
B  :----------------|----------------|----------------|----------------|
G  :5--5-5--5-5-5-7-|-7-7--7-7-7-*---|----------------|----------------|
D  :5--5-5--5-5-5-7-|-7-7--7-7-7-5--5|-5--5-5-5-2--2-2|--2-2-2---------|
A  :3--3-3--3-3-3-5-|-5-5--5-5-5-5--5|-5--5-5-5-2--2-2|--2-2-2---------|
E  :----------------|------------3--3|-3--3-3-3-0--0-0|--0-0-0---------|

and thats just repeated over and over again

im still not sure about the solo

i really wanted this tab and i couldnt find it so i just did it
e-amil me at reuben@rogers.com with comments

Comments about this tab

ApostlePhilip - 2005-04-30

Nice! Would have helped if you could have tabbed the chorus, but anyways... I tried to figure out the solo, and It's probably not correct, but here's my attempt

e-----------------------------------
B-----------------------------------
G--4-5-7-7-7-5-7--4-5-7p5-7p5-7p5- 4x
D-----------------------------------
A-----------------------------------
E-----------------------------------

e--------------
B--------------
G--4--5--7--5--
D--------------
A--------------
E--------------


ApostlePhilip - 2005-04-30

argh, I messed up, do all that on the D string


josh777 - 2006-03-28

Hey Phillip go back to band camp and learn all ur notes cuz u r definately a rookie i mean homie get on my level im a big dawg and ur a lil pup i got a billion bills yea thats whats up!!!!!!


Dani_Boy - 2006-04-22

Don't listen to Josh777, he's just a big jerk. He claims to be the Lead Guitarist for TFK, (which I don't believe a second) and he keeps saying rude things to everyone for no reason at all. I think I'll report him soon. I don't like people being rude at a good christian guitar site. I love CGR, and I want it to be a wonderful christian community until the end of time...

Please, Josh777, for the last time stop being so rude to people!


Dani_Boy - 2006-04-30

Solo?! What solo?


Te eF Kay - 2007-01-14

I have NEVER seen anything tabed by josh777 so I dont even really now if he can even play the guitar!
I agree with Dani_Boy!


Add a comment/correction

Complimentary Christian Ringtones
Dadamobile and CGR have teamed up to bring your favorite Christian artists right to your phone. Sign up today and get 10 complementary ringtones!
Tab Country
Did you know CGR has a sister site w/ country guitar tabs? Well we do! Its called Tab Country. It has a great archive with a lot of country tabs.
Rockin Tabs
Are you looking for a site that has rock guitar tabs? Then Rockintabs.com is the place for you. It is a budding site with many rock guitar tabs. Submit your tab today.
Tab Gallery
Tab Gallery has a compilation of christian, rock, and country tabs all in one place. Come visit us.