Guitar Tabs
song title    band name

Join Us Today!

Don't strum alone...
be a part of the largest online Christian music community. Browse thousands of guitar tabs and chat w/ musicians like yourself.


It's Free!

This tab has been rated a 1.00 out of 5 for accuracy. (1 vote)Sorry, but you must be logged in to rate this tab.
Click here to log-in, or you can click here to register.
(Registration is free)

All songs owned by corresponding publishing company. If you make copies of any song on this website, be sure to report your usage to CCLI.
Artist:Living Sacrifice
Album:Reborn
Song:180
1997 solid state records
tabbed by:matt iveson (mxpx.punk@juno.com)

you may send your thanks in $100 bills.

Db tuning, this whole cd is just for the record.

^bend
\slide down
()palm mute

intro:
g-7-7-8-7-7--------
d-7-8-8-7-6--------

this plays over that after a while
d-0-8-0-6----------
a-0-8-0-6----------
D-0-8-0-6^---------

Then:
d-7-5-8-0-8--------
a-7-5-8-0-8--------
D-7-5-8-0-8--------

d-7-5-8-(0)-(0)----
a-7-5-8-(0)-(0)----
D-7-5-8-(0)-(0)----

d-4-0-8------------
a-4-0-8------------
D-4-0-8------------

d-(0)-8------------
a-(0)-9------------
D-(0)-8------------

d-4-0-8------------
a-4-0-8------------
D-4-0-8------------

part of the intro plays over this:
d-7-5-8-0-8--------
a-7-5-8-0-8--------
D-7-5-8-0-8--------

solo:
g-9-9^-----------14-15-18-19-22\14-
d------8-7-------------------------
a----------8-7-5-------------------

d-4-0-8------
a-4-0-8------
D-4-0-8------

bass...
then:
d-(0)----
a-(0)----
D-(0)----

d-1-0-6-0----
a-1-0-6-0----
D-1-0-6-0----

d-1-0-1-0----
a-1-0-1-0----
D-1-0-1-0----

more palm muting on 0
then:
d-0-1-4-1----
a-0-1-4-1----
D-0-1-4-1----
with d-0-1-4-1----played over it

d-4-0-8----
a-4-0-8----
D-4-0-8----

with intro part
d-7-5-8-0-8----
a-7-5-8-0-8----
D-7-5-8-0-8----

d-4-0-8----
a-4-0-8----
D-4-0-8----

quickly
d-4-0-8----
a-4-0-8----
D-4-0-8----

that's all, God bless. it sounds pretty accurate, post corrections if
any please.

Comments about this tab

tordus - 2006-11-29

the intro is like this

G |-6-6-7-6-6-7--
D |-6-7-7-6-5-7--

you figure out the melody yourself :)


Add a comment/correction

Complimentary Christian Ringtones
Dadamobile and CGR have teamed up to bring your favorite Christian artists right to your phone. Sign up today and get 10 complementary ringtones!
Tab Country
Did you know CGR has a sister site w/ country guitar tabs? Well we do! Its called Tab Country. It has a great archive with a lot of country tabs.
Rockin Tabs
Are you looking for a site that has rock guitar tabs? Then Rockintabs.com is the place for you. It is a budding site with many rock guitar tabs. Submit your tab today.
Tab Gallery
Tab Gallery has a compilation of christian, rock, and country tabs all in one place. Come visit us.