Guitar Tabs
song title    band name

Join Us Today!

Don't strum alone...
be a part of the largest online Christian music community. Browse thousands of guitar tabs and chat w/ musicians like yourself.


It's Free!

Relient K - Sadie Hawkins Dance

This tab has been rated a 3.43 out of 5 for accuracy. (14 votes)Sorry, but you must be logged in to rate this tab.
Click here to log-in, or you can click here to register.
(Registration is free)

All songs owned by corresponding publishing company. If you make copies of any song on this website, be sure to report your usage to CCLI.
Artist: Relient K
Song: Sadie Hawkins Dance		
Copyright: 2001 gotee Record Co.
Written by: Relient K
Tabbed by: Adam K, Dan E

Intro 2 times
(Guitar 1) grdually get louder        (Guitar 2) under intro stay quiet
--6---6---5---5--------------6---6---|--------------------------------------
6---6---6---6---6-8-6-8- 6---6-------|--------------------------------------
-------------------------------------|--------------------------------------
-------------------------------------|--------------------------------------
-------------------------------------|--------------------2-2-2-2-2-2-2-2-2-
-------------------------------------|2-2-2-2-2-2-2-2-2---------------------

After Intro(guitar 1)[dist]   (Guitar 2) with guitar 1   [dist]
---------------------------|------------------------------------------------
---------------------------|------------------------------------------------
-3----------------------8--|------------------------------------------------
-3-*8--3-------5------8-*8-|--------------0--------------0-------0--1-1~0-0-
-1------3-*-8--5-*8--6-----|-1-1-~-3-3---1-1-~-3-3---1-1-~-3-3-----------3--
--------1-------3----------|------------------------------------------------

verse 1  guitar 1,2 
---------------------------------------------------------------
---------------------------------------------------------------
3---------------------8----------------------------------------
3-*8- 3------5------8-*8---------------------------------------
1----- 3-*8--5-*8--6-------------------------------------------
-------1------3------------------------------------------------
[ palm mute.....................]

chorus 1 guitar 1,2 
------------------------------------------------------------------------------
------------------------------------------------------------------------------
-3----------------------------|---3-------------------------------------------
-3-*4--3------5------8-----|---3-*4---  3---------5 ------8-------------------
-1------3-*4--5-*4--8-*1-|--1--------  3-*4----5-*4---8-*4--------------------
---------1------3------6------|-^----------1------- 3-------6-----------------
^          ^        ^         ^  [pause]          ^         ^           
verse 2, guitar 1,2
----------------------------------------------------------------------------
----------------------------------------------------------------------------
-3--------------------------------------------------------------------------
-3-*8--3------5------8------------------------------------------------------
-1------3-*8--5-*8--8-*8----------------------------------------------------
--------1-------3------6----------------------------------------------------
[ palm mute....................]

chorus 2, guitar 1,2

------------------------------|-------------------------------------------
------------------------------|-------------------------------------------
-3----------------------------|-----3-------------------------------------
-3-*4--3------5------8--------|-----3-*4--3------5-------8----------------
-1------3-*4--5-*4--8*-1------|------1----- 3-*4--5-*4--8-*4--------------
--------1-------3------6------|------------ 1------3------6---------------
^         ^          ^       ^  [pause]  ^        ^        ^        

guitar 1 after chorus 2       guitar 2 after chorus 2 like after intro
-----------------------|-------------------------------------------------------
-----------------------|-------------------------------------------------------
-3---------------------|-------------------------------------------------------
-3*8--3------5-----8---|--------------0--------------0--------------0-1-1-~-0-0
-1-----3-*8--5*8--8-*8-|-1-1-~-3-3---1-1-~-3-3----1-1-~-3-3-----------------3--
-------1-------3-----6-|-------------------------------------------------------

guitar 1 does a riff  {clean} 
-------3-3-3--6-6-------3-3-3--6-6-------3-3-3---6-6-6-6-6--3-3-3-----------
-6-6-6------------6-6-6------------6-6-6----------------------------{6} hold 
----------------------------------------------------------------------------
----------------------------------------------------------------------------
----------------------------------------------------------------------------
----------------------------------------------------------------------------

verse 3 guitar 1
---6-------------------6---------------------6------5-------------6---6----5-
-6--hold 8 beats-6--hold 8 beats--6------6-----6--8---6----6---6-----6--8----
-----------------------------------------------------------------------------
-----------------------------------------------------------------------------
-----------------------------------------------------------------------------
-----------------------------------------------------------------------------


---6----6--6--5--5------------6--6--5-5------------6---6---------------------
-6----6--6--6--6--6-8-6-8-6--6--6--6-6-8-6-8-6---6---------------------------
-----------------------------------------------------------------------------
-----------------------------------------------------------------------------
-----------------------------------------------------------------------------
-----------------------------------------------------------------------------

Bass solo 
guitar 1,2    {dist}
--------------------------------
--------------------------------
--------------------------------
-8-8----------------------------
-8-8---*4-----------------------
-6-6----------------------------
[p.m]

chorus *4

end cord-guitar 1,2
-----------------------------------
-----------------------------------
-----------------------------------
-3----3----------------------------
-3-~-3-----------------------------
-1----1----------------------------


This is the full complete version of the tab with nothing wrong and
nothing gone  
listen to the cd to get the rhythm god bless


~=tie
^=down stroke
*=how many times to play
dist=distorsion

Comments about this tab

bakitus - 2004-08-05

not trying 2 be mean but thts really confusing 2 me


Acrobini - 2004-09-14

Me Too


JamesRocks - 2004-09-23

Great Tab keep it up

your brother in christ
Jimmy


Sk8erGrl1346 - 2004-10-06

Yeah, I have to admit, It's a little bit confusing to me. What's confusing to you guys?


soccermonstar13 - 2004-10-10

whoa ... how long did it take you to figure this out


Thorn - 2004-10-11

That must have been insanely hard to figure out.


madasatabber - 2004-11-03

Sweet!!!!


rockin_4_Christ - 2005-01-15

awsome tab!


daotter0 - 2005-01-17

Guitar 2 is pretty much wrong through out the entire tab, and it's really messy, but overall better than the other ones on here.


jamforchrist123 - 2005-03-23

On The Intro, There Is Another Note


jamforchrist123 - 2005-04-27

Oh Yeah, I'm Kinda New To Guitar/Effects Pedals, And Have A Request. Can Anybody Point Out A Relient K Song That Uses A Wah-Wah Pedal For Me? That Help Me Greatly.


ilovguitar272 - 2006-02-03

kind of confusin on the chours but really good tab


Add a comment/correction

Complimentary Christian Ringtones
Dadamobile and CGR have teamed up to bring your favorite Christian artists right to your phone. Sign up today and get 10 complementary ringtones!
Tab Country
Did you know CGR has a sister site w/ country guitar tabs? Well we do! Its called Tab Country. It has a great archive with a lot of country tabs.
Rockin Tabs
Are you looking for a site that has rock guitar tabs? Then Rockintabs.com is the place for you. It is a budding site with many rock guitar tabs. Submit your tab today.
Tab Gallery
Tab Gallery has a compilation of christian, rock, and country tabs all in one place. Come visit us.