Guitar Tabs
song title    band name

Join Us Today!

Don't strum alone...
be a part of the largest online Christian music community. Browse thousands of guitar tabs and chat w/ musicians like yourself.


It's Free!

This tab has been rated a 3.00 out of 5 for accuracy. (8 votes)Sorry, but you must be logged in to rate this tab.
Click here to log-in, or you can click here to register.
(Registration is free)

All songs owned by corresponding publishing company. If you make copies of any song on this website, be sure to report your usage to CCLI.
What Child Is This?
Choir

e-------------------------------------------------------------------------------
B---------------------------------------------------------------------------1-1-
G-------2-3-2------------------------------0-2-3-2-0----------------------------
D-0-3-5-------5-2---0-2-3-0-0--0-2-----0-3-----------2---0-2-3-2-0------0-0-----
A-----------------3-----------4----4-0-----------------3-----------4-2-4--------
E-------------------------------------------------------------------------------

e-------------------------------------------------------------------------------
B-0-----------------------------1-1-0----------------------------1-1-0----------
G---2-0-------------------------------2-0------------------------------2-0------
D-------2---0-2-3-2-0-------0-0-----------2---0-2-3-0-0---0-2--------------2----
A---------3-----------4-2-4-----------------3-----------4-----4-0------------3--
E-------------------------------------------------------------------------------

e----------------------
B----------------------
G----------------------
D-0-2-3-2-0--------0-0-
A------------4-2-4-----
E----------------------

If anyone knows how to play harmonies to this song please feel free to
e-mail me at joeflynt@hotmail.com

Comments about this tab

nick1992 - 2005-12-11

This is real nice just a little all over the place. Great Job :-)


sk84ever - 2005-12-16

i thought this was great!!!... and it was very helpfull too. thanks for submiting this tab


TexasRancher - 2010-12-21

I am not exactly sure how to play this. I have a different tab for this same song, and I guess I am just missing something somewhere. Who do I turn to for help? I would really like to play this for my family on Christmas morning.
Thank you and Merry Christmas all!!!


Add a comment/correction

Complimentary Christian Ringtones
Dadamobile and CGR have teamed up to bring your favorite Christian artists right to your phone. Sign up today and get 10 complementary ringtones!
Tab Country
Did you know CGR has a sister site w/ country guitar tabs? Well we do! Its called Tab Country. It has a great archive with a lot of country tabs.
Rockin Tabs
Are you looking for a site that has rock guitar tabs? Then Rockintabs.com is the place for you. It is a budding site with many rock guitar tabs. Submit your tab today.
Tab Gallery
Tab Gallery has a compilation of christian, rock, and country tabs all in one place. Come visit us.