Guitar Tabs
song title    band name

Join Us Today!

Don't strum alone...
be a part of the largest online Christian music community. Browse thousands of guitar tabs and chat w/ musicians like yourself.


It's Free!

Chevelle - Point #1 Album

This tab has been rated a 2.00 out of 5 for accuracy. (2 votes)Sorry, but you must be logged in to rate this tab.
Click here to log-in, or you can click here to register.
(Registration is free)

All songs owned by corresponding publishing company. If you make copies of any song on this website, be sure to report your usage to CCLI.
01*Open
02*Point #1
03*Prove To You
04*Mia
05*Skeptic
06*Anticipation
07*Dos
08*Long
09*Blank Earth
10*Sma
11*Peer
 Chevelle
  Point #1 (1999)
 ŠLoeffler Publishing and Squint Music (SESAC)
album tabbed by Micah Loffer 
ICQ#20481355


All songs are in Dropped D tuning> DAdGBE
(tune low E down to D)

Key>-----------------------------------|
m = palm mute          f = finger mute |
/ = slide up           \ = slide down  |
x = silence strings    b = bend        |
h = hammer on          p = pull off    |
---------------------------------------|

~~~Open~~~~~~~~~~~~~~~~~~~~~~~~~~~~~~~~~~~~~~~~~~~~~~~~~~~~~~~~~~~~~~~~~~~~~~01*
  palm muted>
d|-0-0-0-0-0-0-3-x-|-----|---
A|-0-0-0-0-0-0-3-x-|-0/7-|-7-
D|-0-0-0-0-0-0-3-x-|-----|---
        x16                play this repeatedly

distorted>
d|-0---0---0---x---|-----|---
A|-0---0---0---x---|-0/7-|-7-
D|-0---0---0---x---|-----|---
                           play repeatedly again


~~~Point #1~~~~~~~~~~~~~~~~~~~~~~~~~~~~~~~~~~~~~~~~~~~~~~~~~~~~~~~~~~~~~~~~~~02*
Verses>    m
d|-5-5-5-5-5-x-|-5-1-1-1-1-5-|
A|-5-5-5-5-5-x-|-5-1-1-1-1-5-|
D|-5-5-5-5-5-x-|-5-1-1-1-1-5-|

Chorus>
d|-1-1-1-1-1-1-1-1-1-1-1-1-1-1-1-1-10-10-10-10-10-10-10-10-10-10-10-10-10-10-10-10-|
A|-1-1-1-1-1-1-1-1-1-1-1-1-1-1-1-1-10-10-10-10-10-10-10-10-10-10-10-10-10-10-10-10-|
D|-1-1-1-1-1-1-1-1-1-1-1-1-1-1-1-1-10-10-10-10-10-10-10-10-10-10-10-10-10-10-10-10-|

Interlude>     m         m
d|-12b13-|-0-0-0-|-0-0-0-0-|
A|-------|-0-0-0-|-0-0-0-0-|
D|-------|-0-0-0-|-0-0-0-0-|

E|-----------------------------------------------------------------|-5-|------|
B|-----------------------------------------------------------------|-5-|------|
G|-----------------------------------------------------------------|-7-|------|
d|-8-8-8-8-8-8-8-8-8-8-8-8-8-8-8-8-0-0-0-0-0-0-0-0-0-0-0-0-0-0-0-0-|-7-|-5----|
A|-8-8-8-8-8-8-8-8-8-8-8-8-8-8-8-8-0-0-0-0-0-0-0-0-0-0-0-0-0-0-0-0-|-5-|-5----|
D|-8-8-8-8-8-8-8-8-8-8-8-8-8-8-8-8-0-0-0-0-0-0-0-0-0-0-0-0-0-0-0-0-|---|-5----|



Outtro>
E|-------------|---------------------------|
B|-------------|---------------------------|
G|-------5-5-5-|---------------------------|
d|-0-0-0-------|-0--3-3--0--8\0------------|
A|-0-0-0-------|-0--3-3--0--8\0------------|
D|-0-0-0-------|-0--3-3--0--8\0------------|


~~~Prove To You~~~~~~~~~~~~~~~~~~~~~~~~~~~~~~~~~~~~~~~~~~~~~~~~~~~~~~~~~~~~~03*
Intro/Chorus chords>
   f5   d5  f5   c5
G|-10---7---10---5-|
d|-10---7---10---5-|
A|--8---5----8---3-|
D|-----------------|

Interlude>
   F5                           A5 D5
d|-3-x-3-x-3-x-3-x-3-x-3-x-3-3-3-5-0-x-|E|-------8----|
A|-3-x-3-x-3-x-3-x-3-x-3-x-3-3-3-5-0-x-|B|-12-12---12-|
D|-3-x-3-x-3-x-3-x-3-x-3-x-3-3-3-5-0-x-|G|------------|

Verse>
d|-3-x-3-x-3-x-3-x-3-x-3-x-3-5-0--0-x-0-x-0-x-0-x-0-x-0-x-3-0-|E|-------8----|
A|-3-x-3-x-3-x-3-x-3-x-3-x-3-5-0--0-x-0-x-0-x-0-x-0-x-0-x-3-0-|B|-12-12---12-|
D|-3-x-3-x-3-x-3-x-3-x-3-x-3-5-0--0-x-0-x-0-x-0-x-0-x-0-x-3-0-|G|------------|

d|-0-0-3-3-3-3-3-3-| .after this riff, hold your finger over the 3rd fret and
A|-0-0-3-3-3-3-3-3-| hit the F5 a few times muted, then slide your pic over the
D|-0-0-3-3-3-3-3-3-| strings, up and down, over the pickups to make that sudsy
                     scratchy sound! and don't forget the 12-12-8-12! :)


~~~Mia~~~~~~~~~~~~~~~~~~~~~~~~~~~~~~~~~~~~~~~~~~~~~~~~~~~~~~~~~~~~~~~~~~~~~~04*
Verse>
G|-----11-11p9---9--9--7-9---------------------------------------|
d|-9---11-11p9---9--9--7-9--5-5--5-5--7-7--7-7--9-9--9-9--9-5--7-|
A|-9----9--9-----7--7--7-7--5-5--5-5--7-7--7-7--9-9--9-9--9-5--7-|
D|-9------------------------5-5--5-5--7-7--7-7--9-9--9-9--9-5--7-|

Chorus>
G|------4^--|---------------------------------------|
d|-2-2------|--5-5--5-5--7-7--7-7--9-9--9-9--9-5--7-|
A|-2-2------|--5-5--5-5--7-7--7-7--9-9--9-9--9-5--7-|
D|-2-2------|--5-5--5-5--7-7--7-7--9-9--9-9--9-5--7-|

Bridge>
B|-------------------3-3--2-3--------|
G|----------------------------2------|
d|-2-2-2-2-2-2-2-2------------2---2--|
A|-2-2-2-2-2-2-2-2------------0---2--|
D|-2-2-2-2-2-2-2-2----------------2--|

End song on E5


~~~Skeptic~~~~~~~~~~~~~~~~~~~~~~~~~~~~~~~~~~~~~~~~~~~~~~~~~~~~~~~~~~~~~~~~~~05*
Intro>
d|-0--x------0--x------3--0-x---------|
A|-0--x------0--x------3--0-x---------|
D|-0--x------0--x------3--0-x---------|

d|-0-x--7---7-7-5-7---7-7-5-7-5-7b8---|
A|-0-x--------------------------------|
D|-0-x--------------------------------|

strum parts of this chord for the quiet verse part (listen to the CD for it)
E|-0---
B|-3---
G|-2---
d|-2---
A|-0---
D|-0---

d|-0----3-3---0---7---5-3-5-3---|
A|-0----3-3---0---7---5-3-5-3---|
D|-0----3-3---0---7---5-3-5-3---|

"This is an incomplete">
d|-7---5---7---7---|
A|-7---5---7---7---|
D|-7---5---7---7---|

"Even if I was all knowing">
G|-----5-----------|-5----------------|
d|-7---5---3-------|-5---7---3--------|
A|-7---7---3-------|-7---7---3--------|
D|-7-------3-------|-----7---3--------|


~~~Anticipation~~~~~~~~~~~~~~~~~~~~~~~~~~~~~~~~~~~~~~~~~~~~~~~~~~~~~~~~~~~~~06*
Intro>
    x7
d|-7h9-9-|-4----|
A|-7h9-9-|-4----|
D|-7h9-9-|-4----|

1st Verse> palm muted>
d|-8-8-8-8-8-8-8-8-8-8-8-8--4--4--4---|
A|-8-8-8-8-8-8-8-8-8-8-8-8--4--4--4---|
D|-8-8-8-8-8-8-8-8-8-8-8-8--4--4--4---|

..here, slide your pic down the low D string from near the bridge down.
You'll hafta feel around for the right sound.

2nd Verse/Chorus>
    x3
d|-7h9-9-|-4--4--4---|
A|-7h9-9-|-4--4--4---|
D|-7h9-9-|-4--4--4---|

Solo Notes>
..here, I'm just gonna put the notes Pete uses, cuz if I wrote out the beat,
this tab would be 20zillion k long! ;) You should be able to figger it out.
B|---------------------------|
G|-------8-6-5-----8-6-5-----|
d|-6-4-6-------4-6-------6-4-|

Outtro>  x3
d|-4--4-4-4--4-4-|-4--4-4-4-4--8--\0-|
A|-4--4-4-4--4-4-|-4--4-4-4-4--8--\0-|
D|-4--4-4-4--4-4-|-4--4-4-4-4--8--\0-|
      f f f  f f


~~~Dos~~~~~~~~~~~~~~~~~~~~~~~~~~~~~~~~~~~~~~~~~~~~~~~~~~~~~~~~~~~~~~~~~~~~~~07*
Verse chords>
d|-4---2-|
A|-2---0-|
D|-0---0-|
  Bm  Dsus2

Chorus chords>
d|-5---3---8---7---5---0---3---7-|
A|-5---3---8---7---5---0---3---7-|
D|-5---3---8---7---5---0---3---7-|
   G5  F5  Bb5 A5  G5  D5  F5  A5

..After each chord in the chorus, mute the strings.


~~~Long~~~~~~~~~~~~~~~~~~~~~~~~~~~~~~~~~~~~~~~~~~~~~~~~~~~~~~~~~~~~~~~~~~~~~08*
Intro>
      x3                     x8
d|-3-3--3-3-|-2-2-3-2-0-||-0----x-|
A|-3-3--3-3-|-2-2-3-2-0-||-0----x-|
D|-3-3--3-3-|-2-2-3-2-0-||-0----x-|
        f f   m m m m m

Verse Chords>
d|-8---8---|
A|-8---8---|
D|-8---5---|

Chorus>
    x7
d|-3p2p0-|-3-3-3---|
A|-3p2p0-|-3-3-3---|
D|-3p2p0-|-3-3-3---|
           m m m

Interlude>
       x8
d|-0----x-|
A|-0----x-|
D|-0----x-|

      x3
d|-2h3--3-3-|-2-2-3-2-0-||-0----------|
A|-2h3--3-3-|-2-2-3-2-0-||-0----------|
D|-2h3--3-3-|-2-2-3-2-0-||-0----------|
        f f   m m m m m

d|-10h12--7h8--7\5--|
A|-10h12--7h8--7\5--|
D|-10h12--7h8--7\5--|

            x2
G|-7--------7--------------|
d|-7------7----0--------5--|
A|-5----5------0--------5--|
D|-0-----------0--------5--|

      x3
d|-2h3--3-3-|-2-2-3-2-0-||e|-17---------|
A|-2h3--3-3-|-2-2-3-2-0-||B|-17---------|
D|-2h3--3-3-|-2-2-3-2-0-||G|-14---------|
        f f   m m m m m

d|-5-5--0-0-0-0--0-------0-0-0-0--0--5-5--0-0-0-0--0-------0-0-0-0--0-|
A|-5-5--0-0-0-0--0--3-3--0-0-0-0--0-------0-0-0-0--0--3-3--0-0-0-0--0-|
D|-5-5--0-0-0-0--0-------0-0-0-0--0-------0-0-0-0--0-------0-0-0-0--0-|
   m m  m m m m  m       m m m m  m       m m m m  m       m m m
m  m

d|-5----0-0-0-0--0----3----0-0-0-0--0-|
A|-5----0-0-0-0--0----3----0-0-0-0--0-|
D|-5----0-0-0-0--0----3----0-0-0-0--0-|


d|-3-5-3-0-|-0--0--0---|
A|-3-5-3-0-|-0--0--0---|
D|-3-5-3-0-|-0--0--0---|
   m m m m

d|-3--------0--0-x-|
A|-3--------0--0-x-|
D|-3--------0--0-x-|


~~~Blank Earth~~~~~~~~~~~~~~~~~~~~~~~~~~~~~~~~~~~~~~~~~~~~~~~~~~~~~~~~~~~~~~09*
Intro>
E|-------------------------------------------------------------0------0--
B|-------------------------------------------------------------3------3--
G|-------------------------------------------------------------2------2--
d|-7--7-7-7-7--7-7-7-7--7-7-7-7--7-7--3--3-3-3-3--3-3-3-3--2/3-0--2/3-0--
A|-7--7-7-7-7--7-7-7-7--7-7-7-7--7-7--3--3-3-3-3--3-3-3-3--2/3----2/3----
D|-7--7-7-7-7--7-7-7-7--7-7-7-7--7-7--3--3-3-3-3--3-3-3-3--2/3----2/3----

----------------------------------------------------------------------|
----------------------------------------------------------------------|
----------------------------------------------------------------------|
-0--0-0-0-0--0-0-0-0--0-0-0-0--0-0--3--3-3-3-3--3-3-3-3--3-3-3-3--3-3-|
-0--0-0-0-0--0-0-0-0--0-0-0-0--0-0--3--3-3-3-3--3-3-3-3--3-3-3-3--3-3-|
-0--0-0-0-0--0-0-0-0--0-0-0-0--0-0--3--3-3-3-3--3-3-3-3--3-3-3-3--3-3-|

From here on, I'm just gonna put the chordshapes and not worry about the beat.
Listen to the CD for the rythm.

distorted riff>
A5, F5, D5, F5
..during the first F5, hold your finger over the 3rd fret like you're going to
do a harmonic, and strum the 4, 3 & 2nd strings quickly. (muted harmonic)

clean verse>
A5, F5, D5, F5      E|-0-|
during the D5, play B|-3-|
                    G|-2-|
                    D|-0-|

distorted chorus>
A5 -C5-d5, F5, D5 x D5
..during the first F5, hold your finger over the 3rd fret like you're going to
do a harmonic, and strum quickly. (muted harmonic)



solo>
E|-------------------------------------------|
B|-5h6-5-5h6-5-5h6----5-5-5h6p5--5-5--5\3----|
G|-------------------------------------------|

Outtro>
A5, E5, F5, D5

End the song on>
d|-0-------|
A|-0-------|
D|-0-------|

Chords>--------------------------|
A5 (777xxx)    C5 (10/10/10xxx)  |
D5 (000xxx)    d5 (12/12/12xxx)  |
F5 (333xxx)    E5 (222xxx)       |
---------------------------------|


~~~Sma~~~~~~~~~~~~~~~~~~~~~~~~~~~~~~~~~~~~~~~~~~~~~~~~~~~~~~~~~~~~~~~~~~~~~~10*
Intro>          x2
E|----------------------------------|-3------------|
B|----------------------------------|-3------------|
G|----------------------------------|-5---------5--|
d|----------------------------------|-5------------|
A|----------------------------------|-3------------|
D|-0-0-0-0-3-3-3-3-3-3-3-3-3-3-3-5--|--------------|

               x4
d|-3p0-3p0-3p0-3-x-3p0-3p0-3p0-5---|
A|-3p0-3p0-3p0-3-x-3p0-3p0-3p0-5---|
D|-3p0-3p0-3p0-3-x-3p0-3p0-3p0-5---|

          x3
d|-0-0--8--8-8-8-10-|-6-6-6-6-6-6-6-6-3-3-3-3-/-15-|
A|-0-0--8--8-8-8-10-|-6-6-6-6-6-6-6-6-3-3-3-3-/-15-|
D|-0-0--8--8-8-8-10-|-6-6-6-6-6-6-6-6-3-3-3-3-/-15-|

Verse Chords>
   D5  Bb5 C5    G#5  F5
d|-0---8---10---|-6---3---|
A|-0---8---10---|-6---3---|
D|-0---8---10---|-6---3---|
      x3          m   m

Interlude>
d|-4-4-5-4-5-4--0-0-x-0-|
A|-4-4-5-4-5-4--0-0-x-0-|
D|-4-4-5-4-5-4--0-0-x-0-|


~~~Peer~~~~~~~~~~~~~~~~~~~~~~~~~~~~~~~~~~~~~~~~~~~~~~~~~~~~~~~~~~~~~~~~~~~~~11*

Intro/Verse Chords>
  Bb5  A5      F5
d|-8---5-/-8---3-|
A|-8---5-/-8---3-|
D|-8---5-/-8---3-|

2:06 Chords>
   A5  D5 E5hF5  G5
d|-5---0---2h3---h5-|
A|-5---0---2h3---h5-|
D|-5---0---2h3---h5-|

2:47 Chords>
d|-3h5---0-5---|
A|-3h5---0-5---|
D|-3h5---0-5---|

3:04 Chords>
e|-17---12-|
B|-15---15-|

d|-5p0-5p0-5p0-5p0-3-/-5-|
A|-5p0-5p0-5p0-5p0-3-/-5-|
D|-5p0-5p0-5p0-5p0-3-/-5-|


~~~Comments~~~~~~~~~~~~~~~~~~~~~~~~~~~~~~~~~~~~~~~~~~~~~~~~~~~~~~~~~~~~~~~~~~~*
..Although this isn't the first tab I've done, it is the first WHOLE album I've
done. I've never had the discipline to tab out one in its entirety before, but
these guys write alot like I do, so it only took me about 3 hours. :] Chevelle
ROCKS! A definitive CD! Feel free to e-mail me any corrections.
Peace and grace through Jesus Christ our Lord! CYA freakies!

Comments about this tab

Kondore - 2006-02-28

Nice job tabbing a whole album! Though of course...I have some bugs to point out that need correction...I didnt look at all all the tabs cause I have my own versions...but I looked at Anticpation, playing drop d, and its not 7/9 its 6/8...atleast when I played with the cd thats the way it sounded. I am a major Chevelle fan cause they really do rock. Good job on the tab though !


Add a comment/correction

Complimentary Christian Ringtones
Dadamobile and CGR have teamed up to bring your favorite Christian artists right to your phone. Sign up today and get 10 complementary ringtones!
Tab Country
Did you know CGR has a sister site w/ country guitar tabs? Well we do! Its called Tab Country. It has a great archive with a lot of country tabs.
Rockin Tabs
Are you looking for a site that has rock guitar tabs? Then Rockintabs.com is the place for you. It is a budding site with many rock guitar tabs. Submit your tab today.
Tab Gallery
Tab Gallery has a compilation of christian, rock, and country tabs all in one place. Come visit us.