Guitar Tabs
song title    band name

Join Us Today!

Don't strum alone...
be a part of the largest online Christian music community. Browse thousands of guitar tabs and chat w/ musicians like yourself.


It's Free!

Chevelle - Peer

This tab has been rated a 4.00 out of 5 for accuracy. (1 vote)Sorry, but you must be logged in to rate this tab.
Click here to log-in, or you can click here to register.
(Registration is free)

All songs owned by corresponding publishing company. If you make copies of any song on this website, be sure to report your usage to CCLI.
*Peer*
  Chevelle
  Point #1 (1999)
 ŠLoeffler Publishing and Squint Music (SESAC)
tabbed by John Thomas 

Tuning> Dropped D> DAdGBE (tune low E down to D)

ive tried to be as exact as posible
youll need to listen very closely to
the cd for the rythm -- ive tried my
best to show the rythm here, but...

key:
h = hammer
p = pull off
/ = slide
d = downstroke
u = upstroke
x = muted note example: x5 means mute on the way to the next chord
    (really just the sound of the pik)(not a harmonic)

no "-" between notes = faster tempo

more than one "-" = slower tempo

Intro/Verses> clean
g|-3-3-3-3-3-3-3-------------2-2-2-2-2-2-|
d|-5-5-5-5-5-5-5-xx5/8-8-x-3-3-3-3-3-3-3-|
A|-3-----3-----3-xx5/8-8-x-3-----3---3---|
D|---------------xx5/8-8-x-3-------------|
   d u u d u u d dud   u u d u u d u d u

between verse 1 and 2>
g|-3-3-3-3-3-3-2h3p2-------------2-2-2-2-2-2-|
d|-5-5-5-5-5-5-0----h3---------3-3-3-3-3-3-3-| twice
A|-3-----3-----------------8-8-3-----3---3---|
D|---------------------5h8-8-8-3-------------|
   d u u d u u d       d   u u d u u d u d u

b|-------3------------------------|-------3---------------------------|
g|----3---------------2-2-2-2-2-2-|-3-3-3-3-3-3-----------2-2-2-2-2-2-|
d|-5--5-------------3-3-3-3-3-3-3-|-5-5-5-5-5-5---------3-3-3-3-3-3-3-|
A|-3------------8-8-3-----3---3---|-3-----3---3-----8-8-3-----3---3---|
D|----------5h8-8-8-3-------------|-------------5h8-8-8-3-------------|
   d  u  u  d   u u d u u d u d u   d u u d u d d   u u d u u d u d u


the rythm of the rest is kinda vague

time: 2:06> clean at first, part way through turns distorted

d|-7--7--0--|
A|-7--7--0--| first time
D|-7--7--0--|
   d  u  d

d|-2h3-3-3-3-3-3-3-3h5-5-5-5-5-5-5-5h7-7-7-7-7-0--|
A|-2h3-3-3-3-3-3-3-3h5-5-5-5-5-5-5-5h7-7-7-7-7-0--|(pretty much) rest of the time
D|-2h3-3-3-3-3-3-3-3h5-5-5-5-5-5-5-5h7-7-7-7-7-0--|
   d u d u d u d u d u d u d u d u d u d u d u d


time: 2:47>
d|-3-3-3-3-3-3-3h5-5-5-5-5-5-5-5-0-5-5-5-5-5-5-|
A|-3-3-3-3-3-3-3h5-5-5-5-5-5-5-5-0-5-5-5-5-5-5-| (i think)
D|-3-3-3-3-3-3-3h5-5-5-5-5-5-5-5-0-5-5-5-5-5-5-|
   d u d u d u d   u d u d u d u d u d u d u d


time: 3:04>
this is too fast to tab so
here are the basic chords
d|-5p0-5p0-5p0-5p0-3-/-5-|
A|-5p0-5p0-5p0-5p0-3-/-5-|
D|-5p0-5p0-5p0-5p0-3-/-5-|

This is THE COOLEST song!
But you will HAVE to listen closely to the cd to get this right!
Enjoy!

Comments about this tab

No comments/corrections found. Add your own

Complimentary Christian Ringtones
Dadamobile and CGR have teamed up to bring your favorite Christian artists right to your phone. Sign up today and get 10 complementary ringtones!
Tab Country
Did you know CGR has a sister site w/ country guitar tabs? Well we do! Its called Tab Country. It has a great archive with a lot of country tabs.
Rockin Tabs
Are you looking for a site that has rock guitar tabs? Then Rockintabs.com is the place for you. It is a budding site with many rock guitar tabs. Submit your tab today.
Tab Gallery
Tab Gallery has a compilation of christian, rock, and country tabs all in one place. Come visit us.