Guitar Tabs
song title    band name

Join Us Today!

Don't strum alone...
be a part of the largest online Christian music community. Browse thousands of guitar tabs and chat w/ musicians like yourself.


It's Free!

Chevelle - Blank Earth

This tab has been rated a 5.00 out of 5 for accuracy. (1 vote)Sorry, but you must be logged in to rate this tab.
Click here to log-in, or you can click here to register.
(Registration is free)

All songs owned by corresponding publishing company. If you make copies of any song on this website, be sure to report your usage to CCLI.
*Blank Earth*
  Chevelle
  Point #1 (1999)
 ŠLoeffler Publishing and Squint Music (SESAC)
tabbed by Micah Loffer  ICQ#20481355

Tuning> Dropped D> DAdGBE (tune low E down to D)

Intro>
E|-------------------------------------------------------------0------0--
B|-------------------------------------------------------------3------3--
G|-------------------------------------------------------------2------2--
d|-7--7-7-7-7--7-7-7-7--7-7-7-7--7-7--3--3-3-3-3--3-3-3-3--2/3-0--2/3-0--
A|-7--7-7-7-7--7-7-7-7--7-7-7-7--7-7--3--3-3-3-3--3-3-3-3--2/3----2/3----
D|-7--7-7-7-7--7-7-7-7--7-7-7-7--7-7--3--3-3-3-3--3-3-3-3--2/3----2/3----

----------------------------------------------------------------------|
----------------------------------------------------------------------|
----------------------------------------------------------------------|
-0--0-0-0-0--0-0-0-0--0-0-0-0--0-0--3--3-3-3-3--3-3-3-3--3-3-3-3--3-3-|
-0--0-0-0-0--0-0-0-0--0-0-0-0--0-0--3--3-3-3-3--3-3-3-3--3-3-3-3--3-3-|
-0--0-0-0-0--0-0-0-0--0-0-0-0--0-0--3--3-3-3-3--3-3-3-3--3-3-3-3--3-3-|

From here on, I'm just gonna put the chordshapes and not worry about the beat.
Listen to the CD for the rythm.

distorted riff>
A5, F5, D5, F5
..during the first F5, hold your finger over the 3rd fret like
you're going to
do a harmonic, and strum quickly. (muted harmonic)

clean verse>
A5, F5, D5, F5      E|-0-|
during the D5, play B|-3-|
                    G|-2-|
                    D|-0-|

distorted chorus>
A5 -C5-d5, F5, D5 x D5
..during the first F5, hold your finger over the 3rd fret like you're going to
do a harmonic, and strum quickly. (muted harmonic)



solo>
E|-------------------------------------------|
B|-5h6-5-5h6-5-5h6----5-5-5h6p5--5-5--5\3----|
G|-------------------------------------------|

Outtro>
A5, E5, F5, D5

End the song on>
d|-0-------|
A|-0-------|
D|-0-------|

Chords>--------------------------|
A5 (777xxx)    C5 (10/10/10xxx)  |
D5 (000xxx)    d5 (12/12/12xxx)  |
F5 (333xxx)    E5 (222xxx)       |
---------------------------------|

..This song ROCKS like all craziness! Hope this hasn't been too
confusing! Feel free to e-mail me with corrections or questions!  Peace and
grace through Jesus Christ our Lord!

Comments about this tab

No comments/corrections found. Add your own

Complimentary Christian Ringtones
Dadamobile and CGR have teamed up to bring your favorite Christian artists right to your phone. Sign up today and get 10 complementary ringtones!
Tab Country
Did you know CGR has a sister site w/ country guitar tabs? Well we do! Its called Tab Country. It has a great archive with a lot of country tabs.
Rockin Tabs
Are you looking for a site that has rock guitar tabs? Then Rockintabs.com is the place for you. It is a budding site with many rock guitar tabs. Submit your tab today.
Tab Gallery
Tab Gallery has a compilation of christian, rock, and country tabs all in one place. Come visit us.