Guitar Tabs
song title    band name

Join Us Today!

Don't strum alone...
be a part of the largest online Christian music community. Browse thousands of guitar tabs and chat w/ musicians like yourself.


It's Free!

PFR - Them

This tab has not yet been rated for accuracy.Sorry, but you must be logged in to rate this tab.
Click here to log-in, or you can click here to register.
(Registration is free)

All songs owned by corresponding publishing company. If you make copies of any song on this website, be sure to report your usage to CCLI.
Title:Them
Artist:PFR
Album:Them
Written By:PFR
From:Gervs
(C)1996-The Sparrow Corporation

Ok, I know that this song is already in hear but in chords style, I am just
adding it tabs style.

(intro)
                           (..band, marches..)  (...media mediates...)
E---0---0--------------------0--0--0------------------------------------0------
A---10--12-------------------3--5--7------------7---9---10----7---9-----7------
D---10--12--9----------------2--4--5--------------5---7---9----5---7----9------
G---9---11--9--(3 times)-----0--0--0---------------5---7---9----5---7---9------
B---0---0---8----------------0--3--0------------------------------------0------
e---0---0---0----------------0--0--0------------------------------------0------

(..they tell us..)                          
    
E------------------------------------------
A--------7---9------------7----------------
D--9--7--7---9---(2 x)----------7-9--(2x)--
G--9--7---------------------9-7------------
B------------------------------------------
e------------------------------------------

(..it's all too clear)

E------------------------------------------------------------------------------
A------------------------------------------------------------------------------
D------------------------------------------------------------------------------
G-9--12--9-12--14--------14-16-14---------------9--11--12----------------------
B------------------13-12----------------------------------12-------------------
e---------------------------------14--12-14-15---------------------------------

(...we don't have...)               Chorus(...how can you say?)
    
E-----------------------------------------3---5---5---7---5--------------------
A--------7--9------------------9--7-------5---5---7---7---5--------------------
D--9--7--7--9--(3x)---9--7--5--9--7-------5---7---7---9---7----(2x)------------
G--9--7---------------9--7--5-------------4---7---5---9---7--------------------
B-----------------------------------------3---5---5---7---5--------------------
e-----------------------------------------3---5---5---7---5--------------------

(guitaring after chorus)     (...they tell us)

E------------------------------------------------------------------------------
A------------------------------------------------------------------------------
D-------------------------------------------------9--12-----9(b,r)-------------
G--9--9-11--12-14-12--14-----------------12---11--------11---------------------
B-----------------------15-----------------12----------------------------------
e-------------------------14---12-12-12----------------------------------------

(chorus, same as previous, no changes here)

(guitaring after chorus)

E-------------------------------------------------------------------
A---------------------------------------------7--10-----------------
D--5------------------------------(2x)--9--7--7--10--10--10-12-10-9-
G----7---5-4-2---0-2-4--2-0-2--4--------9--7------------------------
B-------------------------------------------------------------------
e-------------------------------------------------------------------


E-------------------------------------------------------------------
A-------------------------------------------------------------------
D-------------------------------------------------------------------
G--13-13-13--11-11-11--9--8-9-11-14---------------------------------
B-----------------------------------12--16-16-16--14-14-14-12-12-12-
e-------------------------------------------------------------------


E--------------------------------------------------
A--------------------------------------------------
D--------------------------------------------------
G------8-9-11-14-----------------------------------
B--10------------12(let ring)----------------------
e--------------------------------------------------

PS (the ending is very hard to figure out especially since it fades out)

this is just my interpretations, if you have any comments, suggestions, or
whatever, email me at erik_gervais@hotmail.com

Comments about this tab

No comments/corrections found. Add your own

Complimentary Christian Ringtones
Dadamobile and CGR have teamed up to bring your favorite Christian artists right to your phone. Sign up today and get 10 complementary ringtones!
Tab Country
Did you know CGR has a sister site w/ country guitar tabs? Well we do! Its called Tab Country. It has a great archive with a lot of country tabs.
Rockin Tabs
Are you looking for a site that has rock guitar tabs? Then Rockintabs.com is the place for you. It is a budding site with many rock guitar tabs. Submit your tab today.
Tab Gallery
Tab Gallery has a compilation of christian, rock, and country tabs all in one place. Come visit us.