Guitar Tabs
song title    band name

Join Us Today!

Don't strum alone...
be a part of the largest online Christian music community. Browse thousands of guitar tabs and chat w/ musicians like yourself.


It's Free!

This tab has not yet been rated for accuracy.Sorry, but you must be logged in to rate this tab.
Click here to log-in, or you can click here to register.
(Registration is free)

All songs owned by corresponding publishing company. If you make copies of any song on this website, be sure to report your usage to CCLI.
 8 WEEKS - Side Walk Slam
-----------------------------------

By: Mark Sescon

Verse
e|-------------------------------------------------------------------|
B|-------------------------------------------------------------------|
G|--7-7-7-7-----------------------7-7-7-7-------7-7-7-7--------------|
D|--7-7-7-7-----------------------7-7-7-7-------7-7-7-7--------------|
A|--5-5-5-5----------------------------------------------------------|
E|--------------------------------7-7-7-7-------5-5-5-5--------------|
  1.I'ts no surprise I have to go. 
    Ready or not. Here we go. 
    Pack my bags, I'm out the door.
    Do you still love me?         Just like before.
  2.I guess by now you've figured out -
    what's in my heart; you know it's true.
    I never thought in all the world -
    it's in my hands; it's all you.

Chorus
e|----------------------------------------------------------------------------|
B|----------------------------------------------------------------------------|
G|-------------------7----------------------------7-7-7-7---------------------|
D|--5-5-5-5----------7---5-5-5-5------------------7-7-7-7------------7-7-7-7--|
A|--5-5-5-5----------5---5-5-5-5------------------5-5-5-5------------7-7-7-7--|
E|--3-3-3-3--------------3-3-3-3-------------------------------------5-5-5-5--|
    Eight weeks from now will you figure out just how much I love you?
    Do you know right now; the hardest part of leaving is knowing I'm alone?

Transition from Chorus to Bridge
e|---------|
B|---------|
G|---------|
D|--7-8-9--|
A|--7-8-9--|
E|--5-6-7--|

Bridge
e|---------------------------------------------------------------------------|
B|---------------------------------------------------------------------------|
G|----------------------------------------7-7-7-7-7--------------------------|
D|--9-9-9-9---------5-5-5-5---------------7-7-7-7-7------------7-7-7-7-------|
A|--9-9-9-9---------5-5-5-5---------------5-5-5-5-5------------7-7-7-7-------|
E|--7-7-7-7---------3-3-3-3------------------------------------5-5-5-5-------|
    I'm living now. Can you hear me now - calling out your name?
    I want you to know right now how much you mean to me.        I love you.

Interlude
e|---------------------------------------------------------------------------|
B|---------------------------------------------------------------------------|
G|---------------------------------------------------------------------------|
D|--5-5-5-5-4-5-7-7-7-7------------------------------------------------------|
A|--5-5-5-5-4-5-7-7-7-7------------------------------------------------------|
E|--3-3-3-3-2-3-5-5-5-5------------------------------------------------------|

Ending part (let these notes ring)
e|---------------------------------------------------------------------------|
B|---------------------------------------------------------------------------|
G|------7-----7-----7-----------7--------------------------------------------|
D|----7-----7-----7-------------7--------------------------------------------|
A|--5---------------------------5--------------------------------------------|
E|--------7-----5------------------------------------------------------------|

I'm a really lazy person, so I decided not to place the rythm, but at least
I put the chords and stuff including the lyrics. The lyrics are kind of
wrong, but it's all good. I could be seriouly wrong, but the song appears
to be playing a classical (nylon string, cat gut string, etc.) guitar.
Also, this song looks like another song by another pop punk group....I
wonder who....
(Clue: Blink 182's "Stay Together for the Kids")

Comments about this tab

No comments/corrections found. Add your own

Complimentary Christian Ringtones
Dadamobile and CGR have teamed up to bring your favorite Christian artists right to your phone. Sign up today and get 10 complementary ringtones!
Tab Country
Did you know CGR has a sister site w/ country guitar tabs? Well we do! Its called Tab Country. It has a great archive with a lot of country tabs.
Rockin Tabs
Are you looking for a site that has rock guitar tabs? Then Rockintabs.com is the place for you. It is a budding site with many rock guitar tabs. Submit your tab today.
Tab Gallery
Tab Gallery has a compilation of christian, rock, and country tabs all in one place. Come visit us.