Guitar Tabs
song title    band name

Join Us Today!

Don't strum alone...
be a part of the largest online Christian music community. Browse thousands of guitar tabs and chat w/ musicians like yourself.


It's Free!

This tab has not yet been rated for accuracy.Sorry, but you must be logged in to rate this tab.
Click here to log-in, or you can click here to register.
(Registration is free)

All songs owned by corresponding publishing company. If you make copies of any song on this website, be sure to report your usage to CCLI.
Author/Artist: Chasing Furies
Title: Writhe for Hearing
Album: Chasing Furies
Written by: Words and music by Sarah Meeker
Copyright: 1999 Birdwing Music (admin. by EMI ChristianMusic Publishing)/ASCAP
Transcribed by:  Christopher Pailes
E-mail:  phil4_13_nkjv@yahoo.com

The strumming you hear in the beginning as well as in the verses with distortion is
Am -> G ->F -> G -> Am (only quickly strums G on the way from Am to F and vice versa)

                                       
   Am F  G    or  Am   F  G
|--5--1--3---------0---1--3---|
|--5--1--3---------1---1--0---|
|--5--2--4---------2---2--0---|
|--7--3--5---------2---3--0---|
|--7--3--5---------0---X--2---|
|--5--1--3---------0---X--3---|


The chorus just contains these guitar riffs played over and over again (with heavy distortion)

D |----------------------------------------------|
A |----------------------------------------------|
E |-11-12-11-12--11-12-11-12---------------------|

D |----------------------------------------------|
A |----------------------------------------------|
E |-4-5-4-5--5-5-7-7-8-8-1-1---------------------|


Please feel free to e-mail any comments or suggestions

Comments about this tab

No comments/corrections found. Add your own

Complimentary Christian Ringtones
Dadamobile and CGR have teamed up to bring your favorite Christian artists right to your phone. Sign up today and get 10 complementary ringtones!
Tab Country
Did you know CGR has a sister site w/ country guitar tabs? Well we do! Its called Tab Country. It has a great archive with a lot of country tabs.
Rockin Tabs
Are you looking for a site that has rock guitar tabs? Then Rockintabs.com is the place for you. It is a budding site with many rock guitar tabs. Submit your tab today.
Tab Gallery
Tab Gallery has a compilation of christian, rock, and country tabs all in one place. Come visit us.