Guitar Tabs
song title    band name

Join Us Today!

Don't strum alone...
be a part of the largest online Christian music community. Browse thousands of guitar tabs and chat w/ musicians like yourself.


It's Free!

This tab has not yet been rated for accuracy.Sorry, but you must be logged in to rate this tab.
Click here to log-in, or you can click here to register.
(Registration is free)

All songs owned by corresponding publishing company. If you make copies of any song on this website, be sure to report your usage to CCLI.
TELL ME HOW YOU FEEL  
--------------------
  by Phil Keaggy (album: "Sunday's Child")
  TAB by Dave Kitabjian, dave&mary@netcarrier.com
     Corrections and comments welcome!!

Standard tuning
No capo
Key: A
_______________

Opening:

   Bar9 - - - - - - - - - - - - - - - - - - - - - - - - - - - - - - - - - - -|
   Asus2,4                                     D6,9
|-------------------------------------------|---------------------0------------|
|---------------10--------------------------|------------------0---------------|
|------------9------9-----------------------|--------------11------------------|
|-----11/12------------12\11--9(hold)-------|-----------9----------------------|
|--0------------------------------12(hold)--|-------12-------------------------|
|-------------------------------------------|---10-----------------------------|


Intro: (2x)

   Bar2 - - - - - - - - - - - - - - - - - - - - - - - -|
   A
|----------------------___|___---------------------------|
|--5---3--2-----------2___|___2---------2----------------|
|--2---4--2--4--2--4--2   |   2--[2/]4--2--4--2----------|
|--2---------4--2--4------|------[2/]4-----4--2--4--2----|
|--0(hold)----------------|----------------------4--0----|
|-------------------------|------------------------------|
                        (hold)   []=optional


Verse:

You   say tomorrow, Tonight        is better for me,

   Bar2 - - - - - - - - - - - - - - - - - - - -|
   A
   |----------------------|---------------------| [play Intro]
   |----------------------|---------------------| 
   |--2---4--2------4--2--|--2---4--2----4--2---|
   |--2---4--2------4--2--|--2---4--2----4--2---|
   |--0(hold)-------------|--0(hold)------------|
   |----------------------|---------------------|

You  say the time  isn't   right,      It's better to wait.

   Bar2 - - - - - - - - - - - - - - - - - - - -|
   A
   |----------------------|---------------------| [play Intro]
   |----------------------|---------------------| 
   |--2---4--2------4--2--|--2---4--2----4--2---|
   |--2---4--2------4--2--|--2---4--2----4--2---|
   |--0(hold)-------------|--0(hold)------------|
   |----------------------|---------------------|

             Em   G         D
Listen to me I'll be there looking,
 Em      G        D      (tap-tap)
Watch me I'll be looking, 
Em   G         D            G  A
I'll be there looking your way.


[Verse]
You've got your name up in lights, 
You're feeling ok,
Listen to me I'll be there looking,
Watch me I'll be looking for you,
I'll be there looking your way.


Chorus:
                F#m  E       D
Tell me how you feel on the inside 
  F#m                 E    Bm
When the spotlight's not around.
             F#m
Do you run away cause 
            E               D7  D7sus4  D7  D7sus2
You cannot face the crowd alone.


  [play Intro x2]
  Em  G  D
  Em  G  D  (tap-tap)
  Em  G  D  G  A


[Verse]
You say you posted tonight 
A letter to me,
Listen to me I'll be there waiting, 
Watching and waiting for it,
I'll be there waiting to read


[Chorus]
Just what is written there on the inside,
It's where you let it all come out.
Will you throw away what 
                            D7   D7sus4
You cannot say because you doubt.
    D7          D7sus4    D7  D7sus4     D7      D7sus2
So let it out, let it out,           so let it out.


[Verse]
I'll make arrangements alright, 
The dinner's on me,
You say tomorrow tonight, 
Or just wait and see.
Listen to me I'll be there looking, 
Watch me I'll be looking,
I'll be there looking to see you


[Chorus]
Tell me how you feel on the inside 
When the lights are finally out,
Will you run away, 
You won't have to face the crowd tonight.

[play Intro x2]

For more on Phil Keaggy, go to - http://www.kitabjian.com/dave/

Comments about this tab

No comments/corrections found. Add your own

Complimentary Christian Ringtones
Dadamobile and CGR have teamed up to bring your favorite Christian artists right to your phone. Sign up today and get 10 complementary ringtones!
Tab Country
Did you know CGR has a sister site w/ country guitar tabs? Well we do! Its called Tab Country. It has a great archive with a lot of country tabs.
Rockin Tabs
Are you looking for a site that has rock guitar tabs? Then Rockintabs.com is the place for you. It is a budding site with many rock guitar tabs. Submit your tab today.
Tab Gallery
Tab Gallery has a compilation of christian, rock, and country tabs all in one place. Come visit us.