Guitar Tabs
song title    band name

Join Us Today!

Don't strum alone...
be a part of the largest online Christian music community. Browse thousands of guitar tabs and chat w/ musicians like yourself.


It's Free!

Relient K - Those Words Are Not Enough

This tab has been rated a 3.75 out of 5 for accuracy. (8 votes)Sorry, but you must be logged in to rate this tab.
Click here to log-in, or you can click here to register.
(Registration is free)

All songs owned by corresponding publishing company. If you make copies of any song on this website, be sure to report your usage to CCLI.
Relient K
The Anatomy of the Tongue In Cheek
Those Words Are Not Enough
(c)2001 GoTee Records
Thomas(eastcoastpunk66@poppunk.com) 
corrected by Chris Allen (strat_cat7@hotmail.com)

Intro
 [-----------------------------------------------------------]
 [-----------------------------------------------------------]
 [--------8--9-9-8---------13-11-9---------8--9-9-8-222222222]
 [-2--2-2-x--x-x-x--2--2-2-x--x--x--2--2-2-x--x-x-8-222222222]
 [-2--2-2-6--7-7-6--2--2-2-11-9--7--2--2-2-8--x-9-8-000000000]
 [-0--0-0-----------0--0-0----------0--0-0-------------------]
                                                     pm......
 
 [-----------------------------------------------------------]
 [-----------------------------------------------------------]
 [--------8--9-9-8---------13-11-9---------8--9-9-8-----2----]
 [-2--2-2-x--x-x-x--2--2-2-x--x--x--2--2-2-x--x-x-8---2------]
 [-2--2-2-6--7-7-6--2--2-2-11-9--7--2--2-2-8--x-9-8-0--------]
 [-0--0-0-----------0--0-0----------0--0-0-------------------]
 
VERSE:
C#  G#  A  E  B  *R1    
C#  G#  A  E  B  C#
*R2  B  A  B

PRECHORUS:
(C#  B  A  B) x2  

CHORUS:
(E  G#  A) x2     

[Intro(2nd Half)]
[Verse] 
play R1 at start of verse

  
BRIDGE:
(G#  A  E  B) x2

[Chorus 2x]

first   of R2 twice before verse
[Verse]
[Chorus 4x] (Fourth Time Acapella)

Outro: 
E  G#  A  E  G#  A   

     R1
     e----7-----7-----5-]
     b5-----5-----5----]
     g------------------]
     
     R2
     e-------------------------12---12-14--]
     b--5-44--5-445--------12-----12-------]
     g--4-44--4-444--(3x)------------------]
     d-------------------------------------] 
      *riff 2 goes 3 times then its the chorus


  BRIDGE for guitar 2

     g---------------------------]
     d---------------------------]
     a--6~---7~---11~---9~--(2x)-]
     e---------------------------] 

this should be more complete because I added missing riffs and fixed the
existing ones. Enjoy and God bless.

Comments about this tab

panhead4383 - 2004-01-19

the last A chord arpeggio on the intro should be

e-------------
B-------------
G------------4
D-------2-----
A----0--------
E-------------


takamine_14 - 2005-02-16

how do you read the tabs like this g---------------------------]
d---------------------------]
a--6~---7~---11~---9~--(2x)-]
e---------------------------]


cgplaya - 2005-06-21

i think the chord progression for the verse is:
C#5 A5 E5 B5 C5


cgplaya - 2005-06-21

chorus should be:
E5 C#5 A5


cgplaya - 2005-06-21

for the bridge:
G# should be C#5 instead


paino_gal - 2005-09-22

hey..... i don't know anything about reading the tabs but this is a very beautiful song. :)


The-Guy - 2008-01-29

ummm, to me it sounds like a g#m...
so thats wot i play... meh


Add a comment/correction

Complimentary Christian Ringtones
Dadamobile and CGR have teamed up to bring your favorite Christian artists right to your phone. Sign up today and get 10 complementary ringtones!
Tab Country
Did you know CGR has a sister site w/ country guitar tabs? Well we do! Its called Tab Country. It has a great archive with a lot of country tabs.
Rockin Tabs
Are you looking for a site that has rock guitar tabs? Then Rockintabs.com is the place for you. It is a budding site with many rock guitar tabs. Submit your tab today.
Tab Gallery
Tab Gallery has a compilation of christian, rock, and country tabs all in one place. Come visit us.