Guitar Tabs
song title    band name

Join Us Today!

Don't strum alone...
be a part of the largest online Christian music community. Browse thousands of guitar tabs and chat w/ musicians like yourself.


It's Free!

Five Iron Frenzy - A New Hope

This tab has been rated a 4.50 out of 5 for accuracy. (2 votes)Sorry, but you must be logged in to rate this tab.
Click here to log-in, or you can click here to register.
(Registration is free)

All songs owned by corresponding publishing company. If you make copies of any song on this website, be sure to report your usage to CCLI.
Song: A New Hope
Band: Five Iron Frenzy
Album: All The Hype Money Can Buy
Copyright: 2000 5 Minute Walk Records
Tabbed BY: Matt Price - matt@homerband.com

Intro:
e---------------------------------------
b---------------------------------------
g---------------------------------------
D---------------------------------------
A-----------7-7--6-4-6-6--4-2-4-4--2----
E--4-4--7-7--------------------------4--

e--------------------------
b--------------------------
g--------------------------
D--------------------------
A-----------7-7--6-4-2-4-6r
E--4-4--7-7----------------

Repeat all above 4 times

Verse: play SKA STYLE!!
e--4-4-4-4--7-7-7-7--6-6-6-6-6-6--
b--4-4-4-4--7-7-7-7--7-7-7-7-7-7--
g--4-4-4-4--8-8-8-8--8-8-8-8-8-8--
D--6-6-6-6--9-9-9-9--8-8-8-8-8-8--
A--6-6-6-6--9-9-9-9--6-6-6-6-6-6--
E--4-4-4-4--7-7-7-7---------------

Did the halls smell....LEAD:
e--------------------------
b--------------------------
g--------6-----------9-9-9-
D--7-----6-x8--4-----9-9-9-
A--7-x8--4-----4-x8--7-7-7-
E--5-----------2-----------

e-------------------
b-------------------
g--------6----------
D--7-----6-x8--4----
A--7-x8--4-----4-x8-
E--5-----------2----

Did the halls smell....RYTHM:
e--5-5-5-5--4-4-4-4--2-2-2-2--
b--5-5-5-5--5-5-5-5--2-2-2-2--
g--6-6-6-6--6-6-6-6--3-3-3-3--
D--7-7-7-7--6-6-6-6--4-4-4-4--x2 all
A--7-7-7-7--4-4-4-4--4-4-4-4--
E--5-5-5-5-----------2-2-2-2--

Chorus: timing is off but you'll figure it out
e---------------
b---------------
g-----4-----6---
D--6--4--2--6---
A--6--2--2--4---
E--4-----0------

Lead: play after you play chorus twice
e---------------------
b---------------------
g--8--9--6---8--9--10-
D--x--x--x---x--x--x--x2 all
A--6--7--4---6--7--8--
E---------------------

Bridge: let chord ring
e-----
b-----
g--4--
D--4--
A--2--
E-----

Lead:
e--9-7-7--9-9-7-7--6-4-4--6-6-4-4--5-4-4--5-5-4-4--5-4-4--5-5-4-4-
b-----------------------------------------------------------------
g-----------------------------------------------------------------
D-----------------------------------------------------------------
A-----------------------------------------------------------------
E-----------------------------------------------------------------

Then just play the chorus until the song is
over. Please email me if you have any questions!!

Comments about this tab

svdby - 2005-04-04

really long but really good. I think you could of done a little bit better but for the most part it was very good.


bassguybri - 2006-02-02

u were really close on the intro but this should be 100%
------677-6-4-66-4----------6-77-6-4---4-6-
-44-7--------------7--44-7-----------7-----


bassguybri - 2006-02-02

sorry i typed it wrong i need to learn how to proofread...
------677-6-4-66-4---44-----|-----6-77-6-4---4-6b-
-44-7--------------7----7-6-|44-7-----------7-----


Add a comment/correction

Complimentary Christian Ringtones
Dadamobile and CGR have teamed up to bring your favorite Christian artists right to your phone. Sign up today and get 10 complementary ringtones!
Tab Country
Did you know CGR has a sister site w/ country guitar tabs? Well we do! Its called Tab Country. It has a great archive with a lot of country tabs.
Rockin Tabs
Are you looking for a site that has rock guitar tabs? Then Rockintabs.com is the place for you. It is a budding site with many rock guitar tabs. Submit your tab today.
Tab Gallery
Tab Gallery has a compilation of christian, rock, and country tabs all in one place. Come visit us.