Guitar Tabs
song title    band name

Join Us Today!

Don't strum alone...
be a part of the largest online Christian music community. Browse thousands of guitar tabs and chat w/ musicians like yourself.


It's Free!

This tab has not yet been rated for accuracy.Sorry, but you must be logged in to rate this tab.
Click here to log-in, or you can click here to register.
(Registration is free)

All songs owned by corresponding publishing company. If you make copies of any song on this website, be sure to report your usage to CCLI.
Artist: 58 Skivies
Title: Look Effendi! Did I Fail You When I Promised You The Way To The Tombs?
Album: 58 Skivies EP
Transcribed by: Nick Pilon
Email: nick_p@mail.com

I Tabbed out both guitar parts for this song, they are both pretty much 100%
correct, but if you do find a mistake, please just email me. These guys are
one of the best Christian punk bands i have heard.


PART A:

Guitar 1: Clean
   A        C#      D       E 
--------|-------|-------|-------|----------------------------------------------
--------|-------|-------|-------|----------------------------------------------
--------|-66666-|-77777-|-9-----|----------------------------------------------
-77777--|-66666-|-77777-|-9-Let Ring------------------------------------------
-77777--|-44444-|-55555-|-7-----|----------------------------------------------
-55555--|-------|-------|-------|----------------------------------------------

Guitar 2: Distorted

-55555--|-00000-|--222--|-7h8-0-|---------------------------------------------
--------|-------|-------|-------|---------------------------------------------
--------|-------|-------|-------|---------------------------------------------
--------|-------|-------|-------|---------------------------------------------
--------|-------|-------|-------|---------------------------------------------
--------|-------|-------|-------|---------------------------------------------

Guitar 1: Distorted
(strum each appropriate number of times)
   A       C#      F3       E
--------|-------|-------|-------|---------------------------------------------
--------|-------|-------|-------|---------------------------------------------
--------|---6---|-------|-------|---------------------------------------------
---7----|---6---|---4---|---2---|---------------------------------------------
---7----|---4---|---4---|---2---|---------------------------------------------
---5----|-------|---2---|---0---|---------------------------------------------

Guitar 2: Distorted
   A       C#      F#
--------|-------|-------|---------------|-------------------------------------
--------|-------|-------|---------------|-------------------------------------
--------|---6---|-------|-666666-999999-|-------------------------------------
---7----|---6---|---4---|-xxxxxx-xxxxxx-|-------------------------------------
---7----|---4---|---4---|-444444-777777-|-------------------------------------
---5----|-------|---2---|---------------|-------------------------------------

Guitar 1: Distorted
   A       C#      F#       E
--------|-------|-------|-------|---------------------------------------------
--------|-------|-------|-------|---------------------------------------------
--------|---6---|-------|-------|---------------------------------------------
---7----|---6---|---4---|---2---|---------------------------------------------
---7----|---4---|---4---|---2---|---------------------------------------------
---5----|-------|---2---|---0---|---------------------------------------------
 (x6)     (x6)    (x6)     (x6)

Guitar 2: Distorted
     
------------|-----------|---------------|-------------------------------------
-10--12--9--|-----------|---------------|-------------------------------------
-x---x---x--|x2---------|-666-777-99999-|-------------------------------------
-7---9---6--|--44--4----|-xxx-xxx-xxxxx-|-------------------------------------
------------|--44--4(x8)|-444-555-77777-|-------------------------------------
------------|--22--2----|---------------|-------------------------------------
(x6)(x3)(x3) PM..

Part B

Guitar 1: Distorted  X2		                                        
   A              C#               F#              E
-------|-------|-------|-------|-------|-------|-------|-------|---------------
-------|-------|-------|-------|-------|-------|-------|-------|---------------
-------|-------|--666--|-------|-------|-------|-------|-------|---------------
--777--|-------|--666--|-------|--444--|-------|--222--|-------|---------------
--777--|-------|--444--|-------|--444--|-------|--222--|-------|---------------
--555--|-------|-------|-------|--222--|-------|--000--|-------|---------------

Guitar 2: Distorted  X2		
-------|-------|-------|-------|-------|-------|-------|-------|---------------
-------|-------|-------|-------|-------|-------|-------|-------|---------------
-------|-------|-------|-------|-------|-------|-------|-------|---------------
-------|--7-6--|-------|--7-6--|-------|--7-6--|-------|-6/7-7-|---------------
-------|--x-x--|-------|--x-x--|-------|--x-x--|-------|-x/x-x-|---------------
-------|--5-4--|-------|--5-4--|-------|--5-4--|-------|-4/5-5-|---------------

PART C

Guitar 1: Distorted

---------------|---------------------------------------------------------------
---------------|---------------------------------------------------------------
---------------|---------------------------------------------------------------
---------------|(x4)-----------------------------------------------------------
---------------|---------------------------------------------------------------
-55555-444-7-4-|---------------------------------------------------------------

Guitar 2: Distorted
---------------|---------------------------------------------------------------
---------------|---------------------------------------------------------------
---------------|---------------------------------------------------------------
-77777-666-9-4-|(x4)-----------------------------------------------------------
---------------|---------------------------------------------------------------
---------------|---------------------------------------------------------------

Part D
(strum each appropriate number of times)
Guitar 1: Distorted  X2
   A       C#      F#       E
--------|-------|-------|-------|---------------------------------------------
--------|-------|-------|-------|---------------------------------------------
--------|---6---|-------|-------|---------------------------------------------
---7----|---6---|---4---|---2---|---------------------------------------------
---7----|---4---|---4---|---2---|---------------------------------------------
---5----|-------|---2---|---0---|---------------------------------------------

Guitar 2: Distorted  X2
   A       C#      F#
--------|-------|-------|---------------|-------------------------------------
--------|-------|-------|---------------|-------------------------------------
--------|---6---|-------|-666666-999999-|-------------------------------------
---7----|---6---|---4---|-xxxxxx-xxxxxx-|-------------------------------------
---7----|---4---|---4---|-444444-777777-|-------------------------------------
---5----|-------|---2---|---------------|-------------------------------------

Guitar 1: Distorted
   A       C#      F#       E
--------|-------|-------|-------|---------------------------------------------
--------|-------|-------|-------|---------------------------------------------
--------|---6---|-------|-------|---------------------------------------------
---7----|---6---|---4---|---2---|---------------------------------------------
---7----|---4---|---4---|---2---|---------------------------------------------
---5----|-------|---2---|---0---|---------------------------------------------

Guitar 2: Distorted
   A       C#       D       E
--------|-------|-------|-------|---------------------------------------------
--------|-------|-------|-------|---------------------------------------------
--------|---6---|---7---|---9---|---------------------------------------------
---7----|---6---|---7---|---9---|---------------------------------------------
---7----|---4---|---5---|---7---|---------------------------------------------
---5----|-------|-------|-------|---------------------------------------------

Guitar 1: Distorted
   A       C#      F#       A       E
--------|-------|-------|-------|-------|-------------------------------------
--------|-------|-------|-------|-------|-------------------------------------
--------|---6---|-------|-------|---7---|-------------------------------------
---7----|---6---|---4---|---7---|---7-(let ring)------------------------------
---7----|---4---|---4---|---7---|---9---|-------------------------------------
---5----|-------|---2---|---5---|-------|-------------------------------------
PM.............

Guitar 1: Distorted
            E      F#       A       E
--------|-------|-------|-------|-------|-------------------------------------
--10----|-------|-------|-------|-------|-------------------------------------
--x-----|---7---|-------|-------|---7---|-------------------------------------
--7-----|---7---|---4---|---7---|---7-(let ring)------------------------------
--------|---9---|---4---|---7---|---9---|-------------------------------------
--------|-------|---2---|---5---|-------|-------------------------------------
 (x11)           PM.............

PART E

Guitar 1: Distorted

---------------------|--------------------------------------------------------
---------------------|--------------------------------------------------------
-976-976-976-6--4--2-|(x4)----------------------------------------------------
---------------------|--------------------------------------------------------
---------------------|--------------------------------------------------------
---------------------|--------------------------------------------------------

Guitar 2: Distorted        
-975-975-975-12-10-9-|--------------------------------------------------------
---------------------|--------------------------------------------------------
---------------------|(x4)----------------------------------------------------
---------------------|--------------------------------------------------------
---------------------|--------------------------------------------------------
---------------------|--------------------------------------------------------

Guitar 1: Distorted
   A       C#      F#       E
--------|-------|-------|-------|---------------------------------------------
--------|-------|-------|-------|---------------------------------------------
--------|---6---|-------|-------|---------------------------------------------
---7----|---6---|---4---|---2---|---------------------------------------------
---7----|---4---|---4---|---2---|---------------------------------------------
---5----|-------|---2---|---0---|---------------------------------------------

Guitar 2: Distorted
------------|-----------------|-----------------------------------------------
-10--12--9--|-----------------|-----------------------------------------------
-x---x---x--|x3-666-777-99999-|-----------------------------------------------
-7---9---6--|---xxx-xxx-xxxxx-|-----------------------------------------------
------------|---444-555-77777-|-----------------------------------------------
------------|-----------------|-----------------------------------------------
(x6)(x3)(x3)

Guitar 1: Distorted
   A       C#      F#       E      F#       A
--------|-------|-------|-------|-------|-------|------------------------------
--------|-------|-------|-------|-------|-------|------------------------------
--------|---6---|-------|-------|-------|-------|------------------------------
---7----|---6---|---4---|---2---|---4---|---7---|------------------------------
---7----|---4---|---4---|---2---|---4---|---7-let ring-------------------------
---5----|-------|---2---|---0---|---2---|---5---|------------------------------

Guitar 2: Distorted
------------|-----------------------------|------------------------------------
-10--12--9--|----10------12------9--------|------------------------------------
-x---x---x--|x2--x-(x6)--x-(x6)--x-(x6)---|------------------------------------
-7---9---6--|----7-------9-------6--------|------------------------------------
------------|-----------------------------|------------------------------------
------------|-----------------------------|------------------------------------
(x6)(x3)(x3)

ORDER:

PART A
PART B
PART C
PART D
PART B
PART D
PART E

AND THATS IT!
If you have any comments and/or questions/corrections, please email me. Thanks.

Comments about this tab

No comments/corrections found. Add your own

Complimentary Christian Ringtones
Dadamobile and CGR have teamed up to bring your favorite Christian artists right to your phone. Sign up today and get 10 complementary ringtones!
Tab Country
Did you know CGR has a sister site w/ country guitar tabs? Well we do! Its called Tab Country. It has a great archive with a lot of country tabs.
Rockin Tabs
Are you looking for a site that has rock guitar tabs? Then Rockintabs.com is the place for you. It is a budding site with many rock guitar tabs. Submit your tab today.
Tab Gallery
Tab Gallery has a compilation of christian, rock, and country tabs all in one place. Come visit us.