Guitar Tabs
song title    band name

Join Us Today!

Don't strum alone...
be a part of the largest online Christian music community. Browse thousands of guitar tabs and chat w/ musicians like yourself.


It's Free!

Delirious - Awaken the Dawn

This tab has been rated a 5.00 out of 5 for accuracy. (1 vote)Sorry, but you must be logged in to rate this tab.
Click here to log-in, or you can click here to register.
(Registration is free)

All songs owned by corresponding publishing company. If you make copies of any song on this website, be sure to report your usage to CCLI.
Awaken the Dawn
Delirious?
CD: Glo
c1994 Curious? Music
Written by Stu Garrard
Tabbed by Steve Cruickshank
(postlambjam@hotmail.com)


Note: This tab is for standard-tuned guitars, but the acoustic
that can be heard throughout the song has a capo on 1.
I've written the acoustic chords in brackets to keep them separate.


Intro:  F    Bb2/F   C#   Csus    (x2)
       (E)  (A2/E)  (C)  (Bsus)


Lead guitar
e---------------------------------------------------------
B---10\---------8---6------6------------------------------
G--------5---7-------------------------------------------- (x2)
D---------------------------------------------------------
A---------------------------------------------------------
E---------------------------------------------------------
    F        Bb2/F  C#     Csus

Bagpipes, transcribed for guitar
e---17----------15---13-----13----------------------------
B-------13--15-------------------------------------------- (x2)
G---------------------------------------------------------
D---------------------------------------------------------
A---------------------------------------------------------
E---------------------------------------------------------
    F       Bb2/F    C#     Csus



Verse 1: (bass only)
F  Bb/F
F  Eb  C
F  Bb/F
F  Eb  C

Chorus:
(E)  (A2/E)
 F    Bb2/F

(F#m)  (A2)  (Bsus)
 Gm     Bb2   Csus

(E)  (A2/E)
 F    Bb2/F

(F#m)  (Bsus)
 Gm     Csus   [intro x1]


Verse 2: (with acoustic)
(E)  (A2/E)
 F    Bb2/F

(E)  (D2)  (Bsus)
 F    Eb2   Csus

(E)  (A2/E)
 F    Bb2/F

(E)  (D2)  (Bsus)
 F    Eb2   Csus

[chorus x2]
End with: 
Gm  Csus  Bb [into bridge]

Bridge:

e---------------------------------------------------------
B---5-----6--------------------6p5---5--------------------
G------------7p5----7/9--7h9-------7-----5----------------
D--------------------------------------7------------------
A---------------------------------------------------------
E---------------------------------------------------------
    Bb              Bb

e---------------------------------------------------------
B-----6----------------------6--6p5-----------------------
G---5---5----5--5----------7--------7p5---h5--------------
D------------------------0--------------7-----------------
A---------------------------------------------------------
E---------------------------------------------------------
    F/A                  Dm


(Play the above parts twice through)

Then:  Bb   Bb   C#  Csus........


[chorus]


Ending:
Gm  C  Bb
Gm  C  Bb
Gm  C  F  [play intro x4]

GLO IN THE DARK PART 3

After Awaken the Dawn fades out, a guitar starts playing again:

e-------------------------------------------------------------------
B--10-10-10-10--11-11-11-11--10-10-10-10-8-10--11-11-11-11\10-8-----
G---------------------------------------------------------------10--
D-------------------------------------------------------------------
A-------------------------------------------------------------------
E-------------------------------------------------------------------
   F            Bb2/F        F                 Bb2/F

(At this point another guitar joins in with a harmony,
but I've written it for one guitar)
e-------------------------------------------------------------------
B--8/10-10-10-10--11-13--15-15-15-15--13-11--10---------------------
G-----------------12-14--15-15-15-15--14-12--10---------------------
D-------------------------------------------------------------------
A-------------------------------------------------------------------
E-------------------------------------------------------------------
   F                     Bb2/F
e-------------------------------------------------------------------
B--11/13-13-13-13--11-13--15-15-15-15--13-11-10---------------------
G--12/14-14-14-14--12-14--15-15-15-15--14-12-10---------------------
D-------------------------------------------------------------------
A-------------------------------------------------------------------
E-------------------------------------------------------------------
   F                      Bb2/F


Here's the next lead part:
e--------13-15-17-17-17-17--15-17-18-18-18-18-17--15-13-15/17-------
B--13/15------------------------------------------------------------
G-------------------------------------------------------------------
D-------------------------------------------------------------------
A-------------------------------------------------------------------
E-------------------------------------------------------------------
               F                  Bb2/F
And here's the rhythm for it:
e---13-----13-----13-----13------13-----13-----13-----13------------
B-----13-----13-----13-----13------13-----13-----13-----13----------
G-------14-----14-----14-----14------15-----15-----15-----15--------
D-------------------------------------------------------------------
A-------------------------------------------------------------------
E-------------------------------------------------------------------
    F                            Bb2/F


From there the song picks up, get louder, and the whole band goes
back and forth with the F and Bb2/F chords.
Then some bagpipes come in, then a bass solo, and eventually
everything fades out and the bagpipes are left playing alone.


Chords:

Electric 
(or just play power chords)
F      133211
Bb2/F  113311
Bb2    x13311
C#     x46664
Csus   x35563
Eb2    x68866
Gm     355333
F/A    x03211
Dm     xx0231 or x57765

Acoustic with capo on 1
E      022100
A2/E   002200
A2     x02200
C      x32010
Bsus   x24400
D2     xx0230
F#m    244222
E/G#   422400
C#m    x46654 or x46600

Comments about this tab

No comments/corrections found. Add your own

Complimentary Christian Ringtones
Dadamobile and CGR have teamed up to bring your favorite Christian artists right to your phone. Sign up today and get 10 complementary ringtones!
Tab Country
Did you know CGR has a sister site w/ country guitar tabs? Well we do! Its called Tab Country. It has a great archive with a lot of country tabs.
Rockin Tabs
Are you looking for a site that has rock guitar tabs? Then Rockintabs.com is the place for you. It is a budding site with many rock guitar tabs. Submit your tab today.
Tab Gallery
Tab Gallery has a compilation of christian, rock, and country tabs all in one place. Come visit us.