Guitar Tabs
song title    band name

Join Us Today!

Don't strum alone...
be a part of the largest online Christian music community. Browse thousands of guitar tabs and chat w/ musicians like yourself.


It's Free!

This tab has not yet been rated for accuracy.Sorry, but you must be logged in to rate this tab.
Click here to log-in, or you can click here to register.
(Registration is free)

All songs owned by corresponding publishing company. If you make copies of any song on this website, be sure to report your usage to CCLI.
Waves
Resurrection Band (Rez)
Written by: Glenn Kaiser
Copyright: 1978 Dawn Treader Music, SESAC
Tabbed by: jesusfreak_ae12@anfelfire.com

This song is really catchy and it's fairly easy to play. The best part is
you don't ever have to play while you're singing. Just play, sing, play,
sing, play, sing...anyways, here it is:

e------------------------------------------------------------------------------
B-----1-1-----4-1-1-------1----------------------------------------------------
G-0-2-----2-0-------2-0-2---2-0------------------------------------------------
D-------------------------------2-0--------------------------------------------
A-----------------------------------3-0---0-0----------------------------------
E---------------------------------------3--------------------------------------

Then comes the drum thing while you sing and then you play the riff again,
then stop for the drum and sing, then play again...very fun song. I don't
have any other parts written out, but this little riff is a big chunk of
the song.

Comments about this tab

Richard H - 2005-02-03

it seems like you're going over from G to I think A
my version should be like this:
E----------------------------------------------------
B------1-1-----4--1-1---------1----------------------
G--0-3-----3-0--------3-0-3-----3-0------------------
D-----------------------------------3-1--------------
A---------------------------------------3-1---3-3----
E-------------------------------------------3--------


bankoto - 2005-06-09

I'd rather say
E-------------------------------------------------------
B-------------------------------------------------------
G--------0-0-----3---0--0---------0---------------------
D----0-3-----3-0----------3-0-3-----3-0-----------------
A---------------------------------------3-1-0-----------
E---------------------------------------------3-1-3-3---


voxanBoxer - 2006-07-20

bankoto has it right


Add a comment/correction

Complimentary Christian Ringtones
Dadamobile and CGR have teamed up to bring your favorite Christian artists right to your phone. Sign up today and get 10 complementary ringtones!
Tab Country
Did you know CGR has a sister site w/ country guitar tabs? Well we do! Its called Tab Country. It has a great archive with a lot of country tabs.
Rockin Tabs
Are you looking for a site that has rock guitar tabs? Then Rockintabs.com is the place for you. It is a budding site with many rock guitar tabs. Submit your tab today.
Tab Gallery
Tab Gallery has a compilation of christian, rock, and country tabs all in one place. Come visit us.