Guitar Tabs
song title    band name

Join Us Today!

Don't strum alone...
be a part of the largest online Christian music community. Browse thousands of guitar tabs and chat w/ musicians like yourself.


It's Free!

Tait - Spy

This tab has been rated a 5.00 out of 5 for accuracy. (4 votes)Sorry, but you must be logged in to rate this tab.
Click here to log-in, or you can click here to register.
(Registration is free)

All songs owned by corresponding publishing company. If you make copies of any song on this website, be sure to report your usage to CCLI.
Spy TAIT
By Michael Tait, Aaron Julison and Chad Chapin
From the ForeFront Records album: Empty

Copyright 2001 Out Of Twisted Roots Music (BMI)
(admin. By EMI CMP)/CEC Animal Music (BMI)

This is a modified version of another posted song, I fixed the lyrics and
added some guitar parts.
I still have a feeling the chorus chords aren't quite right....
If you have questions or comments, email me at: spy2000@aol.com

Standard tuned electric guitar

Chords:
e--x---x----x----x---
B--x---x----x----x---
G--1---x----2----2---
D--2---5----2----2---
A--2---5----0----1---
E--0---3----x----x---
     E     G5    A5     Bb5   


Riff 1-reverb and slight tremolo
e-------------------------------------
B-------------------------------------
G-------------------------------------
D-------------------------------------
A-------------------------------------
E-0--0-0-0-3----0-0-0-5----0-0-0-6v-


Riff 2-clean tone
e--------------------------------
B--------------------------------
G--------------------------------
D--------------------------------
A----1--0-------1---0----0------
E-0----------0---------3----3----


Riff 3-distortion
e-------------------------
B-------------------------
G------------------------
D------------------------
A--------1-1-0-0---------
E-0-0-0-----------3-0----

Riff 4-distortion
e-------------------------
B-------------------------
G-------------------------
D-------------------------
A---------------------0---
E--3-0-3-3-0-3-0-3-0-----


Intro: Riff 1 4x

Verse 1-Riff 2, 2x in background

I've watched you watching me but I can't see what you see
You ask me how I feel but you don't believe me still no!


Pre-chorus

A5   G5                A5   G5                A5  G5       A5      G5
          cause what I say        is here today        gone tomorrow


Chorus

E                  G5     A5         G5      A5  E            G5      A5
       You treat me like a spy when I come around  just like a private eye 
         Bb5      A5    E                G5      A5       G5       E
Roamin through your town   you treat me like a spy and I can't see why
             A5      Bb5
 if only looks could kill

Riff 1 2x


Verse 2-Riff 2, 2x in background

You taunt me you doubt my faith then you shove it in my face
you tempt me  but I wont bend you've wasted your time again yeah!


Pre-chorus
A5     G5                  A5   G5                         A5    G5
         And its a shame      will you ever change        you're so suspicious


Repeat chorus

Riff 3, 3x then Riff 4 2x


Repeat chorus 2x

Riff 1 4x then end with E

Comments about this tab

guitar man4 - 2004-12-01

The chorus goes like this: E5 G5 A5 C5
And the bridge...first part: E5(type 2) Bb5 A5 G5 E5 (3x)
Then you play this:
e-------------------- e---0-- -0-0-0-0-0
B-------------------- B---5-- (repeat,listen to the -5-5-5-5-5
G-------------------- then this...G---4-- CD for # of times, then -4-4-4-4-4
D--5-0-5-0-5-0-5-0-7- (2x) D-0---- this: ----------
A--5-0-5-0-5-0-5-0-7- A------ ----------
E--3-0-3-0-3-0-3-0-5- E------ ----------

Then after all that, you play this: A5 G5 A5 G5 E5(type 2) (3x)
Then back to the chorus. Here's the power chords:
e--------------------------------
B--------------------------------
G--------------------------------
D--2----5----7----8----10----14--
A--2----5----7----8----10----14--
E--0----3----5----6----8-----12--
E5 G5 A5 Bb5 C5 E5(type 2)

And that's it. Awesome job on the tab, by the way.


guitar man4 - 2004-12-01

Apparently the chord list at the bottom of the bridge I just posted shifted over to the left a bit. the first chord I listed was E5, and they go in order from there.


Add a comment/correction

Complimentary Christian Ringtones
Dadamobile and CGR have teamed up to bring your favorite Christian artists right to your phone. Sign up today and get 10 complementary ringtones!
Tab Country
Did you know CGR has a sister site w/ country guitar tabs? Well we do! Its called Tab Country. It has a great archive with a lot of country tabs.
Rockin Tabs
Are you looking for a site that has rock guitar tabs? Then Rockintabs.com is the place for you. It is a budding site with many rock guitar tabs. Submit your tab today.
Tab Gallery
Tab Gallery has a compilation of christian, rock, and country tabs all in one place. Come visit us.