Guitar Tabs
song title    band name

Join Us Today!

Don't strum alone...
be a part of the largest online Christian music community. Browse thousands of guitar tabs and chat w/ musicians like yourself.


It's Free!

Payne, Kendall - On My Bones

This tab has not yet been rated for accuracy.Sorry, but you must be logged in to rate this tab.
Click here to log-in, or you can click here to register.
(Registration is free)

All songs owned by corresponding publishing company. If you make copies of any song on this website, be sure to report your usage to CCLI.
I have been waiting for this song to be submitted to this website, but I
couldn't wait any longer :).  So I decided to try it myself.  This is the
first song I have ever tabbed.  I have done as well as I could to make it
sound like the CD version, but I am open to suggestions or improvements.
I don't know all the names of the chords and I am guessing at the how the
measures break off, but if you have heard the song, you should be able to
figure it out.
If you have any comments please email me at Choirgrl5@aol.com.

"On my Bones" written by Kendall Payne from the CD "Jordan's Sister"
tabbed by Becky Doudna

INTRO:

----------------------------------|-----------------------------------|
------5-------5-------5-------5---|------4-------4-------4--------4---|
----4---4---4---4---4---4---4---4-|----4---4---4---4---4---4----4---4-|
--2-------2-------2-------2-------|-----------------------------------|
----------------------------------|--2-------2-------2--------2-------|
----------------------------------|-----------------------------------|


----------------------------------|-----------------------------------|
------5-------5-------5-------5---|------5-------5-------4------------|
----4---4---4---4---4---4---4---4-|----4---4---4---4---4--------------|
----------------------------------|-----------------------------------|
--0-------0-------0-------0-------|--2-------2-------2----------------|
----------------------------------|-----------------------------------|

           
----------------------------------|-----------------------------------|
------5-------5-------5-------5---|------4-------4-------4-------4----|
----4---4---4---4---4---4---4---4-|----4---4---4---4---4---4---4---4--|
--2-------2-------2-------2-------|-----------------------------------|
----------------------------------|--2-------2-------2-------2--------|
----------------------------------|-----------------------------------|


----------------------------------|-----------------------------------|
------5-------5-------5-------5---|------5-------5-------4------------|
----4---4---4---4---4---4---4---4-|----4---4---4---4---4---4----------|
----------------------------------|-----------------------------------|
--0-------0-------0-------0-------|--2-------2-------2----------------|
----------------------------------|-----------------------------------|


C#m                                 A
----------------------------------|-----------------------------------|
------5-------5-------5-------5---|-----------------------------------|
----------------------------------|------2-------2-------2-------2----|
----6---6---6---6---6---6---6---6-|----2---2---2---2---2---2---2---2--|
--4-------4-------4-------4-------|--0-------0-------0-------0--------|
----------------------------------|-----------------------------------|


E (?)                               Bsus
----------------------------------|-----------------------------------|
----------------------------------|-----------------------------------|
------1-------1-------1-------1---|------4-------4-------4-------4----|
----2---2---2---2---2---2---2---2-|----4---4---4---4---4---4---4---4--|
--2-------2-------2-------2-------|--2-------2-------2-------2--------|
----------------------------------|-----------------------------------|


----------------------------------|-----------------------------------|
---------------------5-------5----|----------------------------------0|
----------------------------------|------4-------4-------2-------2----|
-------------------6---6---6---6--|----4---4---4---4---2---2---2---2--|
-----------------4-------4--------|--2-------2-------0-------0--------|
----------------------------------|-----------------------------------|


EXTRA LINES AFTER VERSES 2 and 4


----------------------------------|------------------------------------|
---------------------5-------5----|---------------------------------(0)|(listen
----------------------------------|------4-------4-------2-------2-----|  to 
-------------------6---6---6---6--|----4---4---4---4---2---2---2---2---|  disc)
-----------------4-------4--------|--2-------2-------0-------0---------|
----------------------------------|------------------------------------|
(Verse 2)

Comments about this tab

No comments/corrections found. Add your own

Complimentary Christian Ringtones
Dadamobile and CGR have teamed up to bring your favorite Christian artists right to your phone. Sign up today and get 10 complementary ringtones!
Tab Country
Did you know CGR has a sister site w/ country guitar tabs? Well we do! Its called Tab Country. It has a great archive with a lot of country tabs.
Rockin Tabs
Are you looking for a site that has rock guitar tabs? Then Rockintabs.com is the place for you. It is a budding site with many rock guitar tabs. Submit your tab today.
Tab Gallery
Tab Gallery has a compilation of christian, rock, and country tabs all in one place. Come visit us.