Guitar Tabs
song title    band name

Join Us Today!

Don't strum alone...
be a part of the largest online Christian music community. Browse thousands of guitar tabs and chat w/ musicians like yourself.


It's Free!

Bleach - We Are Tomorrow

This tab has not yet been rated for accuracy.Sorry, but you must be logged in to rate this tab.
Click here to log-in, or you can click here to register.
(Registration is free)

All songs owned by corresponding publishing company. If you make copies of any song on this website, be sure to report your usage to CCLI.
Artist: Bleach
Album:  Not released yet(beginning of 2002?)
Tabbed by: Nathan (strattate@yahoo.com)

This is a rockin song live!  The current single recording doesn't do this
song justice.  I'm almost positive this is the correct tab...i've seen them
play this live quite a few times
*Note:  You must figure out the rhythm and strum pattern.  These may be close,
but its impossible to be completely accurate with this kind of tab.

Intro (sam)

e---------|
b---------|
g--6--6-7-|* repeat 2x  (Sam possibly plays just d+a strings live)
d--7--7-7-|
a--4--4-5-|*
E---------|

(guitar 1)
e---------|
b---------|
g--6--6-7-|* repeat 8x  
d--7--7-7-|
a--4--4-5-|*
E---------|

(guitar 2) repeat ending, then repeat entire line
e----------------------------------------------------|------------------------|
b-----------------------------------------------10---| -10b12b10-10b12b10-8-7-|*
g--7--7--7-7-7-9--9-9--9-9-9-9/11--11--11-11-11------| -----------------------|
d----------------------------------------------------| -----------------------| 
a----------------------------------------------------| -----------------------|*
E----------------------------------------------------| -----------------------|

(verse)
e---------|
b---------|
g--6--6-7-|* repeat   (thats all they play...bass line gives it the harmony)
d--7--7-7-|
a--4--4-5-|*
E---------|

(Bridge)
e-------------------------------------------------
b-------------------------------------------------
g--4--4-4-4-4-9-7-7-7-7-7--4--4-4-4-4-7-9-9-9-9-9-
d--2--2-2-2-2--------------2--2-2-2-2-------------
a--2--2-2-2-2-7-5-5-5-5-5--2--2-2-2-2-5-7-7-7-7-7-
E--0--0-0-0-0--------------0--0-0-0-0-------------

(chorus)
e----------------------------------|
b----------------------------------|*
g--7-7-7-7-7-7-7-------------------|  repeat 4x
d--7-7-7-7-7-7-7-7-5-5-5-5-5-5-5-5-|
a--5-5-5-5-5-5-5-7-5-5-5-5-5-5-5-5-|*
E----------------5-3-3-3-3-3-3-3-3-|


next..after chorus
e------------|
b------------|
g--6-6---6-7-|*
d--7-7---7-7-|   repeat 4x
a--4-4---4-5-|*
E------------|

then back to verse, bridge, and chorus.

after chorus (interlude)
e--------------------------|
b--------------------------|*
g--7-7--7-7--7-7--7-7--7--7|  repeat 4x
d--7-7--7-7--7-7--7-7--7--7|
a--5-5--5-5--5-5--5-5--5--5|*
E--------------------------|

with echo, other guitar playing verse behind
e------------------------------
b------------------------------*
g--6-(6)-(6)-(6)-7-(7)-(7)-(7)-  repeat 4x
d------------------------------
a------------------------------*
E------------------------------

e-----------------------------------------------------
b--------10~~~10b12b10-10b12b10-10b12b10-10b12b10--8-7
g----7------------------------------------------------
d-----------------------------------------------------
a-----------------------------------------------------
E-----------------------------------------------------

then back into the chorus till the end where it ends on the same as the
Interlude.

Questions/Additions/Comments?  

Strattate@yahoo.com

Comments about this tab

No comments/corrections found. Add your own

Complimentary Christian Ringtones
Dadamobile and CGR have teamed up to bring your favorite Christian artists right to your phone. Sign up today and get 10 complementary ringtones!
Tab Country
Did you know CGR has a sister site w/ country guitar tabs? Well we do! Its called Tab Country. It has a great archive with a lot of country tabs.
Rockin Tabs
Are you looking for a site that has rock guitar tabs? Then Rockintabs.com is the place for you. It is a budding site with many rock guitar tabs. Submit your tab today.
Tab Gallery
Tab Gallery has a compilation of christian, rock, and country tabs all in one place. Come visit us.