Guitar Tabs
song title    band name

Join Us Today!

Don't strum alone...
be a part of the largest online Christian music community. Browse thousands of guitar tabs and chat w/ musicians like yourself.


It's Free!

Chapman, Steven Curtis - Carry You To Jesus

This tab has been rated a 4.00 out of 5 for accuracy. (1 vote)Sorry, but you must be logged in to rate this tab.
Click here to log-in, or you can click here to register.
(Registration is free)

All songs owned by corresponding publishing company. If you make copies of any song on this website, be sure to report your usage to CCLI.
Carry You To Jesus
by Steven Curtis Chapman
2001 Sparrow Records
Tabbed by Jacob May (Jacob@AboveProductions.com) email me w/questions or
comments

-----------------------------------------------------------------------------
Verse Chords:
Fingerpick these chords from top to bottom 4 times each (he goes pretty fast)

   G#m      	   F#*     	   E         
|---4-----+	+---2-----+	+---0-----+
|---------+	+---------+	+---------+
|----6----+	+----4----+	+----2----+
|-----4---+	+-----3---+	+-----1---+
|------4--+	+------4--+	+------0--+
|---------+	+---------+	+---------+

Chorus Chords:
Just strum, listen to the song for timing and pattern

Bridge Chords:
Fun stuff here. Don't know their names.

     G*      	   Aug1     	   Aug2         
|----0----+	+----0----+	+---------+
|----5----+	+----2----+	+---------+
|----5----+	+----3----+	+----3----+
|----4----+	+----1----+	+----1----+
|----0----+	+----3----+	+----0----+
|----0----+	+----1----+	+----1----+

-----------------------------------------------------------------------------


Verse:
G#m  F#*(x2)
E    G#m
E

Chorus:
E   B
E   G#m  F#
E   F#   G#m  F#  E     


Bridge:
E   G*   B   Aug1
E   G*   B   Aug2
E
  

End:
E
E

-----------------------------------------------------------------------------
Oh and the little solo you hear in the beginning:

	-------------------------------
	---------------------------4---
	--1---4-2---------1---4-2------
	---------4-1-------------4-----
	-------------------------------
	-------------------------------

Comments about this tab

sixstringes777 - 2004-10-26

i think the solo goes: :0 :) ;)

---------------------------------------------------------
--------------------------4------------------------------
--1---4-3--------1---4-2---------------------------------
---------4-1------------4--------------------------------
---------------------------------------------------------
---------------------------------------------------------


sixstringes777 - 2004-10-26

after playing it a bit i think it is really:

---------------------------------------------
---------------------------------------------
--1---4-2----------1---4-4-2-----------------
---------4-1----------------4-1--------------
---------------------------------------------
---------------------------------------------
SORRY


godin_man_scott - 2006-06-26

the intro is a mix between both a click track melody (Reason/synth) and an ebow melody.


Add a comment/correction

Complimentary Christian Ringtones
Dadamobile and CGR have teamed up to bring your favorite Christian artists right to your phone. Sign up today and get 10 complementary ringtones!
Tab Country
Did you know CGR has a sister site w/ country guitar tabs? Well we do! Its called Tab Country. It has a great archive with a lot of country tabs.
Rockin Tabs
Are you looking for a site that has rock guitar tabs? Then Rockintabs.com is the place for you. It is a budding site with many rock guitar tabs. Submit your tab today.
Tab Gallery
Tab Gallery has a compilation of christian, rock, and country tabs all in one place. Come visit us.