Guitar Tabs
song title    band name

Join Us Today!

Don't strum alone...
be a part of the largest online Christian music community. Browse thousands of guitar tabs and chat w/ musicians like yourself.


It's Free!

Chapman, Steven Curtis - Change, The

This tab has been rated a 5.00 out of 5 for accuracy. (4 votes)Sorry, but you must be logged in to rate this tab.
Click here to log-in, or you can click here to register.
(Registration is free)

All songs owned by corresponding publishing company. If you make copies of any song on this website, be sure to report your usage to CCLI.
The Change
Steven Curtis Chapman
CD: Speechless
c1999 Sparrow Song
Chords: Steve Cruickshank
postlambjam@hotmail.com


Like most of the songs on this album, the guitars are tuned
DOWN half a step

Intro:
I'm not sure if this is right, but something like this riff is
played on E throughout the verse
eb-----------------------------------------------------------
Bb-----------------------------------------------------------
Gb-----------------------------------------------------------
Db-----------------------------------------------------------
Ab-x-x-x-9/11-9--9/12-11--9h11p9-7---9/11-9---7------7h9-----
Eb-x-x-x-0-------0--------0----------0------7----7h9---------


This part is played on A in the verse. Once the B comes in, regular chords are played
eb-------------------------------------------------
Bb-------------------------------------------------
Gb-------------------------------------------------
Db--9/11-9--9/12-11--9h11p9-7---9/11-9---7-7-------
Ab--0-------0--------0----------0------7-----------
Eb-------------------------------------------------


E
E
A   E
E
E
A   B
B   A
B   A

C   D
E   F#
C   D   E


Bridge:
eb--------------------------------------------------
Bb--------------------------------------------------
Gb--------------------------------------------------
Db-2-2-4-5-2-4-5-7/9---2-2-4-5-2-4-5----------------
Ab-2-2-4-5-0-2-3-5/7---2-2-4-5-0-2-3----------------
Eb-0-0-2-3-------------0-0-2-3----------------------


eb-------------------------------------------------
Bb-------------------------------------------------
Gb-------------------------------------------------
Db-2-2-4-5-2-4-5-7/9---2-2-4-5-2-4-5-6-7-----------
Ab-2-2-4-5-0-2-3-5/7---2-2-4-5-0-2-3-4-5-----------
Eb-0-0-2-3-------------0-0-2-3---------------------

The rest of the bridge is D and C back and forth

The bridge ends with:
eb----------------------
Bb----------------------
Gb---5--7--9--8---------
Db---5--7--7--8---------
Ab---3--5-----6---------
Eb----------------------

Comments about this tab

Grimertop - 2005-10-27

I don't know, but that part you put in for the Intro/Verse just doesn't seem right to me. It's a good try, though. If anyone has any corrections to this part of the tab, please post them.

Thanks! GB and keep Rockin'!! ><>

Griemrtop


ZJACK - 2007-09-24

First time I tried this I was like this isn't right but now as I set here with my guitar I'm thinking this is the greatest tab in the world right now! Great Job and God Bless!!! Keep Rockin for Christ


Add a comment/correction

Complimentary Christian Ringtones
Dadamobile and CGR have teamed up to bring your favorite Christian artists right to your phone. Sign up today and get 10 complementary ringtones!
Tab Country
Did you know CGR has a sister site w/ country guitar tabs? Well we do! Its called Tab Country. It has a great archive with a lot of country tabs.
Rockin Tabs
Are you looking for a site that has rock guitar tabs? Then Rockintabs.com is the place for you. It is a budding site with many rock guitar tabs. Submit your tab today.
Tab Gallery
Tab Gallery has a compilation of christian, rock, and country tabs all in one place. Come visit us.